PrimaNota.ru - самый крупный в мире бесплатный архив песенных текстов, аккордов, табулатур и нот


Cohen, Leonard - The Butcher - аккорды и текст, видео

Регистрация Запомнить меня
Войти через:  Facebook Google Twitter Vk Yandex Mail.ru

Cohen, Leonard - The Butcher - аккорды и текст, видео

Печатать
Просмотров: 96
The Butcher
Cohen, Leonard
Chords:

B7:  x21202

Intro: E

E
I came upon a butcher
    A
He was slaughtering a lamb
E
I accused him there
        B7
With his tortured lamb
           E
He said, "Listen to me, child
A
I am what I am
E        B7               A      E
And you, you are my only son."

Well, I found a silver needle
I put it into my arm
It did some good
Did some harm
But the nights were cold
And it almost kept me warm
How come the night is long?

I saw some flowers growing up
Where that lamb fell down
Was I supposed to praise my Lord
Make some kind of joyful sound?
He said, "Listen, listen to me now
I go round and round
And you, you are my only child."

Do not leave me now
Do not leave me now
I'm broken down
From a recent fall
Blood upon my body
And ice upon my soul
Lead on, my son, it is your world



Intro:

    E
    |   .   .   .   |   .   .   .
E|-----------------------------------|
B|-----------------------------------|
G|--1---1-0-1---1-0-1---1-0-1---1-0--|
D|--2---2-0-2---2-0-2---2-0-2---2-0--|
A|--2---2-0-2---2-0-2---2-0-2---2-0--|
E|--0---0-0-0---0-0-0---0-0-0---0-0--|

    E
    |   .   .   .   |   .   .   .
E|-----------------------------------|
B|-----------------------------------|
G|--1---1-0-1---1-0-1---1-0-1---1-0--|
D|--2---2-0-2---2-0-2---2-0-2---2-0--|
A|--2---2-0-2---2-0-2---2-0-2---2-0--|
E|--0---0-0-0---0-0-0---0-0-0---0-0--|


Verse:

    E
    |   .   .   .   |   .   .   .
E|-----------------------------------|
B|-----------------------------------|
G|--1---1-0-1---1-0-1---1-0-1---1-0--|
D|--2---2-0-2---2-0-2---2-0-2---2-0--|
A|--2---2-0-2---2-0-2---2-0-2---2-0--|
E|--0---0-0-0---0-0-0---0-0-0---0-0--|

    A
    |   .   .   .   |   .   .   .
E|-----------------------------------|
B|--2---2-0-2---2-0-2---2-0-2---2-0--|
G|--2---2-0-2---2-0-2---2-0-2---2-0--|
D|--2---2-0-2---2-0-2---2-0-2---2-0--|
A|--0---0-0-0---0-0-0---0-0-0---0-0--|
E|-----------------------------------|

    E
    |   .   .   .   |   .   .   .
E|-----------------------------------|
B|-----------------------------------|
G|--1---1-0-1---1-0-1---1-0-1---1-0--|
D|--2---2-0-2---2-0-2---2-0-2---2-0--|
A|--2---2-0-2---2-0-2---2-0-2---2-0--|
E|--0---0-0-0---0-0-0---0-0-0---0-0--|

    B7
    |   .   .   .   |   .   .   .
E|-----------------------------------|
B|--0---0-0-0---0-0-0---0-0-0---0-0--|
G|--2---2-0-2---2-0-2---2-0-2---2-0--|
D|--1---1-0-1---1-0-1---1-0-1---1-0--|
A|--2---2-0-2---2-0-2---2-0-2---2-0--|
E|-----------------------------------|

    E
    |   .   .   .   |   .   .   .
E|--0---0-0-0---0-0-0---0-0-0---0-0--|
B|--0---0-0-0---0-0-0---0-0-0---0-0--|
G|--1---1-0-1---1-0-1---1-0-1---1-0--|
D|--2---2-0-2---2-0-2---2-0-0---0-0--|
A|--2---2-0-2---2-0-2---2-0-2---2-0--|
E|--0---0-0-0---0-0-0---0-0-0---0-0--|

    A
    |   .   .   .   |   .   .   .
E|--0---0-0-0---0-0-0---0-0-0---0-0--|
B|--2---2-0-2---2-0-2---2-0-2---2-0--|
G|--2---2-0-2---2-0-2---2-0-2---2-0--|
D|--2---2-0-2---2-0-2---2-0-2---2-0--|
A|--0---0-0-0---0-0-0---0-0-0---0-0--|
E|-----------------------------------|

    E               B7
    |   .   .   .   |   .   .   .
E|--0---0-0-0---0-0-2---2-0-2---2-0--|
B|--0---0-0-0---0-0-0---0-0-0---0-0--|
G|--1---1-0-1---1-0-2---2-0-2---2-0--|
D|--2---2-0-2---2-0-1---1-0-1---1-0--|
A|--2---2-0-2---2-0-2---2-0-2---2-0--|
E|--0---0-0-0---0-0------------------|

    A               E
    |   .   .   .   |   .   .   .
E|--0---0-0-0---0-0------------------|
B|--2---2-0-2---2-0------------------|
G|--2---2-0-2---2-0-1---1-0-1---1-0--|
D|--2---2-0-2---2-0-2---2-0-2---2-0--|
A|--0---0-0-0---0-0-2---2-0-2---2-0--|
E|------------------0---0-0-0---0-0--|

    E
    |   .   .   .
E|-------------------|
B|-------------------|
G|--1---1-0-1---1-0--|
D|--2---2-0-2---2-0--|
A|--2---2-0-2---2-0--|
E|--0---0-0-0---0-0--|

Добавлено: 28.12.2013
Другие материалы по этой песне:

Страница создана 23.06.2012
http://primanota.ru/cohen-leonard/the-butcher-chords.htm
Привет, Гость.
Предлагаем пройти революционный курс по гитаре.
Подарок от PrimaNota.Ru, забирай!