PrimaNota.ru - самый крупный в мире бесплатный архив песенных текстов, аккордов, табулатур и нот


Cohen, Leonard - Seems so Long Ago, Nancy - аккорды и текст, видео

Регистрация Запомнить меня
Войти через:  Facebook Google Twitter Vk Yandex Mail.ru

Cohen, Leonard - Seems so Long Ago, Nancy - аккорды и текст, видео

Печатать
Просмотров: 87
Авторы музыки: Leonard Cohen
Авторы текста: Leonard Cohen
Seems so Long Ago, Nancy
Cohen, Leonard
Intro: Bm
 
    Bm       F#    Bm
It seems so long ago
F#m    C#m  F#m
Nancy was alone
A                 Bm
Looking at the Late Late show
         A       E        A
Through a semi-precious stone
C#               F#m
In the House of Honesty
     D              A
Her father was on trial
E                F#m
In the House of Mystery
       C#           D
There was no one at all
       A     E      F#m
There was no one at all

It seems so long ago
None of us were strong
Nancy wore green stockings
And she slept with everyone
She never said she'd wait for us
Although she was alone
I think she fell in love for us
In nineteen sixty one
In nineteen sixty one

It seems so long ago
Nancy was alone
A forty five beside her head
An open telephone
We told her she was beautiful
We told her she was free
But none of us would meet her in
The House of Mystery
The House of Mystery

And now you look around you
See her everywhere
Many use her body
Many comb her hair
In the hollow of the night
When you are cold and numb
You hear her talking freely then
She's happy that you've come
She's happy that you've come

Bm.. ...|E.. ...|A.. ...|



Intro:

    Bm
    |   .   .   .   .   .   |   .   .   .   .   .
E|---------------------------------------------------|
B|------3---3-------3---3-------3---3-------3---3----|
G|------4---4-------4---4-------4---4-------4---4----|
D|----4---4---4---4---4---4---4---4---4---4---4---4--|
A|--2-----------2-----------2-----------2------------|
E|---------------------------------------------------|


Verse:

    Bm          F#          Bm
    |   .   .   .   .   .   |   .   .   .   .   .
E|------------------------------------------2---2----|
B|------3---3-------2---2-------3---3-------3---3----|
G|------4---4-------3---3-------4---4-----4---4---0--|
D|----4---4---4---4---4---4---4---4---4-4------------|
A|--2-----------------------2------------------------|
E|--------------2------------------------------------|

    F#m         C#m         F#m
    |   .   .   .   .   .   |   .   .   .   .   .
E|------5---5-------4---4-------5---5-------5---5----|
B|------7---7-------5---5-------7---7-------7---7----|
G|----6---6---6---6---6---6---6---6---6---6---6---6--|
D|--4-----------------------4------------------------|
A|--------------4-----------------------4------------|
E|---------------------------------------------------|

    A                       Bm
    |   .   .   .   .   .   |   .   .   .   .   .
E|------0---0-------0---0-------2---2-------2---2----|
B|------2---2-------2---2-------3---3-------3---3----|
G|----2---2---2---2---2---2---4---4---4---4---4---4--|
D|--------------2-----------------------4------------|
A|--0-----------------------2------------------------|
E|---------------------------------------------------|

    A           E           A
    |   .   .   .   .   .   |   .   .   .   .   .
E|------0---0-------0---0-------0---0-------0---0----|
B|------2---2-------0---0-------2---2-------2---2----|
G|----2---2---2---1---1---1---2---2---2---2---2---0--|
D|--------------------------------------2------------|
A|--0-----------------------0------------------------|
E|--------------0------------------------------------|

    C#                      F#m
    |   .   .   .   .   .   |   .   .   .   .   .
E|------4---4-------4---4-------5---5-------5---5----|
B|------6---6-------6---6-------7---7-------7---7----|
G|----6---6---6---6---6---6---6---6---6---6---6---6--|
D|--------------6-----------4------------------------|
A|--4-----------------------------------4------------|
E|---------------------------------------------------|

    D                       A
    |   .   .   .   .   .   |   .   .   .   .   .
E|------2---2-------2---2-------0---0-------0---0----|
B|------3---3-------3---3-------2---2-------2---2----|
G|----2---2---2---2---2---2---2---2---2---2---2---2--|
D|--0-----------------------------------2------------|
A|--------------0-----------0------------------------|
E|---------------------------------------------------|

    E                       F#m
    |   .   .   .   .   .   |   .   .   .   .   .
E|---------------------------------------------------|
B|------0---0-------0---0-------2---2-------2---2----|
G|------1---1-------1---1-------2---2-------2---2----|
D|----2---2---2---2---2---2---4---4---4---4---4---4--|
A|--------------2-----------------------4------------|
E|--0-----------------------2------------------------|

    C#                      D
    |   .   .   .   .   .   |   .   .   .   .   .
E|------4---4-------4---4-------2---2-------2---2----|
B|------6---6-------6---6-------3---3-------3---3----|
G|----6---6---6---6---6---6---2---2---2---2---2---2--|
D|--------------6-----------0------------------------|
A|--4-----------------------------------0------------|
E|---------------------------------------------------|

    A           E           F#m
    |   .   .   .   .   .   |   .   .   .   .   .
E|------0---0----------------------------------------|
B|------2---2-------0---0-------2---2-------2---2----|
G|----2---2---2-----1---1-------2---2-------2---2----|
D|----------------2---2---2---4---4---4---4---4---4--|
A|--0-----------------------------------4------------|
E|--------------0-----------2------------------------|

    F#m
    |   .   .   .   .   .
E|---------------------------|
B|------2---2-------2---2----|
G|------2---2-------2---2----|
D|----4---4---4---4---4---4--|
A|--------------4------------|
E|--2------------------------|

Добавлено: 04.03.2014
Другие материалы по этой песне:
  • Аккорды и текст

Страница создана 12.05.2012
http://primanota.ru/cohen-leonard/seems-so-long-ago-nancy-chords.htm
Привет, Гость.
Предлагаем пройти революционный курс по гитаре.
Подарок от PrimaNota.Ru, забирай!