PrimaNota.ru - самый крупный в мире бесплатный архив песенных текстов, аккордов, табулатур и нот


Cohen, Leonard - Bird on the wire - аккорды и текст, таба, видео

Регистрация Запомнить меня
Войти через:  Facebook Google Twitter Vk Yandex Mail.ru

Cohen, Leonard - Bird on the wire - аккорды и текст, таба, видео

Печатать
Просмотров: 197
Авторы музыки: Leonard Cohen
Авторы текста: Leonard Cohen
Bird on the wire
Cohen, Leonard
Tuning: D G C F A D (standard, full step down)

Intro: A

("Comme l'oiseau sur la branche
Comme l'ivrogne dans le coeur de la nuit
J'ai cherche ma liberte")

A.. ...|E.. ...|A.. ...|D.. ...|
A.. ...|E.. ...|A.. Asus4..|A.. ...|

        A           E
Like a bird on the wire
         A                      D
Like a drunk in some midnight choir
         A          E          A.. Asus4..|A.. ...|
I have tried in my way to be free

Like a worm on a hook
Like a knight bent down in some old fashioned book
It was the shape, the shape of our love twisted me

D                       A
If I, if I have been unkind
   Bm                                              A
I hope you can, I hope you can just let it all go by, go by
D                            A
And if I, if I have been untrue
                   Bm                                         E.Esus4..|E...|
It's just that I thought a lover had to be some kind of liar too

Like a baby, stillborn
Like a beast with his horn
I have torn everyone who reached out for me

But I swear by this song
And by all that I have done wrong
I will make it all up to thee

I saw a beggar, he was leaning on his wooden crutch
He says to me, "Come on now, you must not ask for so much."
And another pretty woman, she was leaning in her darkened door
She cried out to me, "Come on now, why don't you ask,
Why don't you ask for just a little more?
Just a little more?"

Like a bird on the wire
Like a drunk in some old midnight choir
         A          E          D  A
I have tried in my way to be free



Intro:

    A
    |   .   .   .   .
D|-----------------------|
A|----------2...----2----|
F|----------2...---------|
C|------2-------------2--|
G|--0--------------------|
D|-----------------------|

    A
    |   .   .   .   .   .   |   .   .   .   .   .
D|---------------------------------------------------|
A|--3-------3---2-------0---2------------------------|
F|------2-----------2-----------2---2-------2---2----|
C|----2---2---2---2---2---2---2---2---2---2---2---2--|
G|--0-----------0-----------0-----------0------------|
D|---------------------------------------------------|

    A
    |   .   .   .   .   .   |   .   .   .   .   .
D|---------------------------------------------------|
A|------------------2---2-------2---2-------2---2----|
F|------2---2-------2---2-------2---2-------2---2----|
C|----2---2---2---2---2---2---2---2---2---2---2---2--|
G|--0-----------0-----------0------------------------|
D|---------------------------------------------------|

    A
    |   .   .   .   .   .   |   .   .   .   .   .
D|---------------------------------------------------|
A|------2---2-------2---2-------2---2-----------2----|
F|------2---2-------2---2-------------------2--------|
C|----2---2---2---2---2---2---2---2---2---2---2---2--|
G|--0-----------0-----------0-----------0------------|
D|---------------------------------------------------|

    E                       A
    |   .   .   .   .   .   |   .   .   .   .   .
D|----------------------------------------------0----|
A|--0-------------------0---2-------2-------3--------|
F|------1---0h1-----1-----------2--------------------|
C|----2---2-------2---2---2---2---2---2---2---2---2--|
G|--------------------------0-----------0------------|
D|--0-----------0------------------------------------|

    D                       A
    |   .   .   .   .   .   |   .   .   .   .   .
D|------2---2h3-2---0-----------0--------------------|
A|--3-------------------3---0h2-----0h2-----3---2----|
F|----2---2---2---2---2---2-------2------------------|
C|--0-------------------------------------2---2---2--|
G|--------------------------------------0------------|
D|---------------------------------------------------|

    E                       A
    |   .   .   .   .   .   |   .   .   .   .   .
D|---------------------------------------------------|
A|--0-------------------0-----------2---3-------3----|
F|------1---0h1-----1-------2---2-----------2--------|
C|----2---2-------2---2---2---2---2---2---2---2---2--|
G|--------------------------0-----------0------------|
D|--0-----------0------------------------------------|

    A
    |   .   .   .   .   .
D|---------------------------|
A|--2-------0---2------------|
F|------2-----------2---2----|
C|----2---2---2---2---2---2--|
G|--0-----------0------------|
D|---------------------------|
Добавлено: 13.02.2014
Другие материалы по этой песне:

Страница создана 27.03.2012
http://primanota.ru/cohen-leonard/bird-on-the-wire-chords.htm
Привет, Гость.
Предлагаем пройти революционный курс по гитаре.
Подарок от PrimaNota.Ru, забирай!