PrimaNota.ru - самый крупный в мире бесплатный архив песенных текстов, аккордов, табулатур и нот


Coheed & Cambria - Year Of The Black Rainbow (album) - таба, видео

Регистрация Запомнить меня
Войти через:  Facebook Google Twitter Vk Yandex Mail.ru

Coheed & Cambria - Year Of The Black Rainbow (album) - таба, видео

Печатать
Просмотров: 116
Artist: Coheed and Cambria
Album: The Year Of The Black Rainbow


As tabbed by Lawrence Jones


Here are the full album tabs for 'The Year Of The Black Rainbow.'  If interested I have 
made Guitar Pro tabs for each of these songs; simply browse through the tabs on UG and 
pick 'em up.

The tracks listed below in sequential order as follows:

1. One
2. The Broken
3. Guns of Summer
4. Here We Are Juggernaut
5. Far
6. This Shattered Symphony
7. World of Lines
8. Made Out of Nothing (All That I Am)
9. Pearl of the Stars
10. In the Flame of Error
11. When Skeletons Live
12. The Black Rainbow
13. Chamberlain (Demo)
14. The Lost Shepherd (Demo)
15. Hush

Tab Symbol Key:
/ - slide
. - palm mute
v - vibrato
p - pull off
t - tap
h - hammer on
~ - let ring
b - bend to sound like the following note
r - release bend
* - natural harmonic

__________________________________________________________________________________


Track: "One"
Tuning: Standard

There is some random noise on this track; obviously that can not be tabbed out.
What is here is all of the main piano/synth themes transcribed for guitar.

Key:
/ - slide
. - palm mute
v - vibrato
p - pull off
h - hammer on
~ - let ring
b - bend to sound like the following note
r - release bend
* - natural harmonic

Piano Theme I: x 1

(0:27 - 0:37)

e-10----------------------------------------------------------16-15-13-15-------|
B----13-------13-------------------11----------------10-12-13-------------------|
G-------10-12-------10-13-12----------13-12-10----10----------------------------|
D----------------12----------13-10-------------13-------------------------------|
A-------------------------------------------------------------------------------|
E-------------------------------------------------------------------------------|

(0:37 - 0:48)

e----------10-13-16-15-11-10----------------------------------------------------|
B-10-12-13----------------------------13-------------------11-------------------|
G----------------------------------12-------10-13-12----------13-12-10----10----|
D----------------------------10-13-------12----------13-10-------------13-------|
A-------------------------------------------------------------------------------|
E-------------------------------------------------------------------------------|

(0:48 - 0:56)

e----------16-15-13-15----------10-13-16-15-11----------------------------------|
B-10-12-13-------------10-12-13-------------------------------------------------|
G-------------------------------------------------------------------------------|
D-------------------------------------------------------------------------------|
A-------------------------------------------------------------------------------|
E-------------------------------------------------------------------------------|

Piano Theme II: x 6

(1:12 - 1:54)

e----------------------------------------|
B------8------8-----------8------8-------|
G----8------8------8----8------8------8--|
D-10-----10-----10---10-----10-----10----|
A----------------------------------------|
E----------------------------------------|

(1:12 - 1:54)


Piano Theme III:

First time

e---------------17---19------------------|
B----------------------------------------|
G----------------------------------------|
D----------------------------------------|
A----------------------------------------|
E----------------------------------------|

Next five times

e-20------------17---19------------------|
B----------------------------------------|
G----------------------------------------|
D----------------------------------------|
A----------------------------------------|
E----------------------------------------|

Piano Theme IV: x 5

(1:20 - 1:54)

e-------11----------------------11------------------|
B----13----13----13----13----13----13----13----13---|
G-12------------------------------------------------|
D---------------------------------------------------|
A---------------------------------------------------|
E---------------------------------------------------|
  ................................................

Piano Theme V: x 1

(1:34 - 1:54)

e------------------------------------------------|
B------------------------------------------------|
G------------------5-------2---------------------|
D-0---1---3---5----5---1---3------0---1---3---5--|
A------------------------------------------------|
E------------------------------------------------|

________________________________________________________________________________


Track: "The Broken"
Tuning: Standard

This tab was substantiated with live videos to confirm hand positioning and notes.

Live Videos:
http://www.youtube.com/watch?v=VOrKJ3Dyk4c
http://www.youtube.com/watch?v=Zz7QWBKhXw8


Claudio Live Intro: x 1

e-------------------------------------------------------------------------|
B-------------------------------------------------------------------------|
G-------------------------------------------------------------------------|
D-------------------------------------------------------------------------|
A-///13b15r15-------------------------------------------------------------|
E-------------------------------------------------------------------------|


Verse I:


Claudio Verse Riff: x 2

e-------------------------------------------------------------------------|
B-------------------------------------------------------------------------|
G-------------------------------------------------------------------------|
D-5-5-x-x-x---5-5-------5---5/3-0-----------------------------------------|
A-3-3-x-x-x---3-3----/6---6--------5-6-5-3-----1-3-----5---5-8-6-5--------|
E------------------------------------------10/------/6---6----------------|

e-------------------------------------------------------------------------|
B-------------------------------------------------------------------------|
G---------------------------------------------------7-10-8p7---7/5p0------|
D------------------------------------------------/8----------8------------|
A-6-6-x-x-x----6-6------------3-3-x-x-x---3-3-----------------------------|
E-4-4-x-x-x----4-4---6-4-3-4--1-1-x-x-x---1-1-----------------------------|

Claudio 1st Verse/Chorus Transition: x 1

e-------------------------------------------------------------------------|
B-------------------------------------------------------------------------|
G-------------------------------------------------------------------------|
D-5-5-x-x-x---5-5-------5---5/3-0-----------------------------------------|
A-3-3-x-x-x---3-3----/6---6-------5-6-5-3-----1-3-----5---5-8-6-5---------|
E-----------------------------------------10/------/6---6-----------------|

e---------------------------------------------5*--------------------------|
B---------------------------------------------5*--------------------------|
G-------------------------------------------------------------------------|
D-------------------------------------------------------------------------|
A-6-6-x-x-x----6-6------------3-3-x-x-x---3-3-----12///-------------------|
E-4-4-x-x-x----4-4---6-4-3-4--1-1-x-x-x---1-1-----12///----0-0------------|
							   . .
Travis Verse Riff: x 2

e-------------------------------------------------------------------------|
B-------------------------------------------------------------------------|
G-------------------------------------------------------------------------|
D-5-5-----1-1------------------5-3----x-1-3-------------------------------|
A-----3-3-----3~-------13/------------------3~--------13/-----------------|
E-------------------------------------------------------------------------|

e-------------------------------------------------------------------------|
B-8-6-4-4-3-3h4p3---------------------------------------------------------|
G-----------------------------------8------8------------------------------|
D---------------------------------8---8-10---10---------------------------|
A-----------------------------/10-----------------------------------------|
E-------------------------------------------------------------------------|


1st Chorus:


Claudio Chorus Chords: x 1

e-------------------------------------------------------------------------|
B-------------------------------------------------------------------------|
G-------------------------------------------------------------------------|
D-------------------------------------------------------------------------|
A-6-6-6-6-6-6-6-6-6-6-6-6-6-6-0-0-3-3-3-3-3-3-3-3-3-3-3-3-3-3-3-0---------|
E-4-4-4-4-4-4-4-4-4-4-4-4-4-4-0-0-1-1-1-1-1-1-1-1-1-1-1-1-1-1-1-0---------|

e-------------------------------------------------------------------------|
B-------------------------------------------------------------------------|
G-------------------------------------------------------------------------|
D-5-5-5-5-5-5-5-5-5-5-5-5-5-5-5-0-3-3-3-3-3-3-3-3-3-3-3-3~--3-3-0---------|
A-3-3-3-3-3-3-3-3-3-3-3-3-3-3-3-0-1-1-1-1-1-1-1-1-1-1-1-1~--1-1-0---------|
E-------------------------------------------------------------------------|

e-------------------------------------------------------------------------|
B-------------------------------------------------------------------------|
G-------------------------------------------------------------------------|
D-------------------------------------------------------------------------|
A-6-6-6-6-6-6-6-6-6-6-6-6-6-6-6-0-8-8-8-8-8-8-8-8-8-8-8-8-8---------------|
E-4-4-4-4-4-4-4-4-4-4-4-4-4-4-4-0-6-6-6-6-6-6-6-6-6-6-6-6-6-12/-0-0-------|
                                                                . .

Travis Chorus Lead: x 1

e-------------------------------------------------------------------------|
B-------------------------------------------------------------------------|
G-8-----10-----12-----15----------8------10------12------15---------------|
D-------------------------------------------------------------------------|
A-------------------------------------------------------------------------|
E-------------------------------------------------------------------------|

e-------------------------------------------------------------------------|
B-------------------------------------------------------------------------|
G-12-----------12-----------------10-------------10-----------------------|
D-------------------------------------------------------------------------|
A-------------------------------------------------------------------------|
E-------------------------------------------------------------------------|

e-------------------------------------------------------------------------|
B-------------------------------------------------------------------------|
G-8-----10-----12-----15----------17-----------17b19r17b19r17-------------|
D-------------------------------------------------------------------------|
A-------------------------------------------------------------------------|
E-------------------------------------------------------------------------|
	Note:  In the above lead, Travis tremolo picks all of the notes
	       except that last bend


Verse Break:


Claudio Verse Riff x 1
Travis Verse Lead x 1


2nd Verse:


Claudio 2nd Verse/Chorus Transition: x 1

e-------------------------------------------------------------------------|
B-------------------------------------------------------------------------|
G-------------------------------------------------------------------------|
D-5-5-x-x-x---5-5-------5---5/3-0-----------------------------------------|
A-3-3-x-x-x---3-3----/6---6-------5-6-5-3-----1-3-----5---5-8-6-5---------|
E-----------------------------------------10/------/6---6-----------------|

e-------------------------------------------------------------------------|
B-------------------------------------------------------------------------|
G---------------------------------------------5*--------------------------|
D-------------------------------------------------------------------------|
A-6-6-x-x-x----6-6------------3-3-x-x-x---3-3-----12///-------------------|
E-4-4-x-x-x----4-4---6-4-3-4--1-1-x-x-x---1-1-----12///----0-0------------|
							   . .

Travis Verse Lead x 1


2nd Chorus:


Claudio Chorus Chords x 1
Travis Chorus Lead x 1


Bridge I:


Claudio Bridge I Riff: x 2

e-------------------------------------------------------------------------|
B-------------------------------------------------------------------------|
G-------------------------------------------------------------------------|
D-6/5-5-x-x-6/5-5---5-8-6-5---------6/5-5--x-X--6/5-5-5-----5----5--------|
A-4/3-3-x-x-4/3-3-6---------8-6-5/3-4/3-3--x-x--4/3-3---6-----6----6------|
E---------------------------------------------------------8-----8----8----|

e---------------------------------------------------------------------------|
B---------------------------------------------------------------------------|
G---------------------------------------------------------------------------|
D-6/5-5-x-x-6/5-5---5-8-6-5-----------------3-------------------------------|
A-4/3-3-x-x-4/3-3-6---------8-6-5/3-------4---4-3/1---1-3-4-3p1---1-3-4-3/\-|
E-----------------------------------0h3h6-----------4-----------4-----------|

Travis Bridge I Lead: x 2

e-------------------------------------------------------------------------|
B-20-20-18-18-16-16-20-20-18-18-16-16-20-20-18-18-16-16-------------------|
G-------------------------------------------------------20-20-20-20-------|
D-------------------------------------------------------------------------|
A-------------------------------------------------------------------------|
E-------------------------------------------------------------------------|

e---------------------------------|
B---------------------------------|
G-19-19-19-19-17-----15-----17v---|
D---------------------------------|
A---------------------------------|
E---------------------------------|

e-------------------------------------------------------------------------|
B-20-20-18-18-16-16-20-20-18-18-16-16-20-20-18-18-16-16-------------------|
G-------------------------------------------------------20-20-20-20-------|
D-------------------------------------------------------------------------|
A-------------------------------------------------------------------------|
E-------------------------------------------------------------------------|

e---------------------------------|
B---------------------------------|
G-19-19-19-19-17-----15-----17v---|
D---------------------------------|
A---------------------------------|
E---------------------------------|

e-------------------------------------------------------------------------|
B-20-20-18-18-16-16-20-20-18-18-16-16-20-20-18-18-16-16-------------------|
G-------------------------------------------------------20-20-20-20-------|
D-------------------------------------------------------------------------|
A-------------------------------------------------------------------------|
E-------------------------------------------------------------------------|

e---------------------------------|
B---------------------------------|
G-19-19-19-19-17-----15-----17v---|
D---------------------------------|
A---------------------------------|
E---------------------------------|

e-------------------------------------------------------------------------|
B-------------------------------------------------------------------------|
G-18v---------------20v------------------------------17v------------------|
D-------------------------------------------------------------------------|
A-------------------------------------------------------------------------|
E-------------------------------------------------------------------------|
	Note: Travis picks the majority of the first three measures of this
	      really really fast (64th notes) and then ends in sixteenth
	      notes

Travis Bridge I Lead (Alt. Live): x 2
e-------------------------------------------------------------------------|
B-20-18-16-20-18-16-20-18-16----------------------------------------------|
G----------------------------20-20-19---17-/-15---17v---------------------|
D-------------------------------------------------------------------------|
A-------------------------------------------------------------------------|
E-------------------------------------------------------------------------|

e-------------------------------------------------------------------------|
B-20-18-16-20-18-16-20-18-16----------------------------------------------|
G----------------------------20-20-19---17-/-15---17v---------------------|
D-------------------------------------------------------------------------|
A-------------------------------------------------------------------------|
E-------------------------------------------------------------------------|

e-------------------------------------------------------------------------|
B-20-18-16-20-18-16-20-18-16----------------------------------------------|
G----------------------------20-20-19---17-/-15---17v---------------------|
D-------------------------------------------------------------------------|
A-------------------------------------------------------------------------|
E-------------------------------------------------------------------------|

e-------------------------------------------------------------------------|
B-------------------------------------------------------------------------|
G-18v---------------20v------------------------------17v------------------|
D-------------------------------------------------------------------------|
A-------------------------------------------------------------------------|
E-------------------------------------------------------------------------|
	Note: Well, if you couldn't play the version on the CD, this is the
	      version for you!  When played live, Travis picks this part
	      half as slow as on the CD.


Bridge II:


Claudio Bridge II Riff: x 2

e-------------------------------------------------------------------------|
B-------------------------------------------------------------------------|
G-------------------------------------------------------------------------|
D-6~----------6-3~----5-5-5-5-5-5-------------6-5-3-----------------------|
A-4~----------4-1~----3-3-3-3-3-3-6-5-3-6-5-3-------6-5-3-----------------|
E-------------------------------------------------------------------------|
		        . . . . .

Travis Bridge II Lead: x 1

e-------------------------------------------------------------------------|
B-------------------------------------------------------------------------|
G--18---18------18h20-------17----------17-------17-----------------------|
D-------------------------------------------------------------------------|
A-------------------------------------------------------------------------|
E-------------------------------------------------------------------------|

e-------------------------------------------------------------------------|
B-------------------------------------------------------------------------|
G--18---18#-----20#---------17#---------19#------20#--------19v-----------|
D-------------------------------------------------------------------------|
A-------------------------------------------------------------------------|
E-------------------------------------------------------------------------|
	Note:  For all notes followed by a # sign, tremolo pick those
	       as 16th notes.


Bridge III:


Claudio Bridge III Chords: x 1

e-------------------------------------------------------------------------|
B-------------------------------------------------------------------------|
G-------------------------------------------------------------------------|
D-------------------------------------------------------------------------|
A-6-6666-6-6-666666666666-6---------5-5555-5-5-555555555555-5-------------|
E-4-4444-4-4-444444444444-4/11-0000-3-3333-3-3-333333333333-3/11-0000-----|
    ....     ............      ....   ....     ............      ....

e-------------------------------------------------------------------------|
B-------------------------------------------------------------------------|
G-------------------------------------------------------------------------|
D--------------------------------------------8-10----------8-10-----------|
A-8-8888-8-8-888888888888-8-------------8-10----------8-10----------8-10--|
E-6-6666-6-6-666666666666-6/14---0--6-8-----------6-8-----------6-8-------|
    ....     ............

e-------------------------------------------------------------------------|
B-------------------------------------------------------------------------|
G-------------------------------------------------------------------------|
D-------------------------------------------------------------------------|
A-6-6666-6-6-666666666666-6---------5-5555-5-5-555555555555-5-------------|
E-4-4444-4-4-444444444444-4/11-0000-3-3333-3-3-333333333333-3/11-0000-----|
    ....     ............      ....   ....     ............      ....

e-------------------------------------------------------------------------|
B-------------------------------------------------------------------------|
G-------------------------------------------------------------------------|
D--------------------------------------------8-10----------8-10b12r10-----|
A-8-8888-8-8-888888888888-8-------------8-10----------8-10----------------|
E-6-6666-6-6-666666666666-6/14---0--6-8-----------6-8---------------------|

Travis Bridge III Lead: x 1

e-------------------------------------------------------------------------|
B-------------------------------------------------------------------------|
G-6p0---6p0---6p0---6p0---6p0----5p0---5p0---5p0---5p0---5p0--------------|
D-----6-----6-----6-----6-----6------5-----5-----5-----5-----5------------|
A-------------------------------------------------------------------------|
E-------------------------------------------------------------------------|

e-------------------------------------------------------------------------|
B-----------------------------------------6-----------6-------------------|
G-8p0---8p0---8p0---8p0---8p0-------3-5-8-------3-5-8-------3-5-----------|
D-----8-----8-----8-----8-----8-3-5---------3-5---------3-5---------------|
A-------------------------------------------------------------------------|
E-------------------------------------------------------------------------|

e-------------------------------------------------------------------------|
B-------------------------------------------------------------------------|
G-6p0---6p0---6p0---6p0---6p0----5p0---5p0---5p0---5p0---5p0--------------|
D-----6-----6-----6-----6-----6------5-----5-----5-----5-----5------------|
A-------------------------------------------------------------------------|
E-------------------------------------------------------------------------|

e-------------------------------------------------------------------------|
B-----------------------------------------6-----------6-------------------|
G-8p0---8p0---8p0---8p0---8p0-------3-5-8-------3-5-8---------------------|
D-----8-----8-----8-----8-----8-3-5---------3-5---------------------------|
A-------------------------------------------------------12//--0-0---------|
E-------------------------------------------------------12//--0-0---------|


Guitar Solo:


Claudio Solo: x 1

e-------------------18b20-------18-16-------------------------------------|
B-------------16-18--------------------20b21r20---------16-16b18r16-15----|
G-17v---------------------------------------------------------------------|
D-------------------------------------------------------------------------|
A-------------------------------------------------------------------------|
E-------------------------------------------------------------------------|

e-------------------------------------------------------------------------------|
B-/16-13-15--------------------/16-13-15----------------------------------------|
G-----------12b13r12---------------------12b13r12-------13-13h15-13p12-13p12-10-|
D-------------------------------------------------------------------------------|
A-------------------------------------------------------------------------------|
E-------------------------------------------------------------------------------|

Travis Chords: x 1

e-------------------------------------------------------------------------|
B-------------------------------------------------------------------------|
G-------------------------------------------------------------------------|
D-------------------------------------------------------------------------|
A-6-6-6-6-6-6-6-6-6-6-6-6-6-6-6-0-3-3-3-3-3-3-3-3-3-3-3-3-3-3-3-0---------|
E-4-4-4-4-4-4-4-4-4-4-4-4-4-4-4-0-1-1-1-1-1-1-1-1-1-1-1-1-1-1-1-0---------|

e-------------------------------------------------------------------------|
B-------------------------------------------------------------------------|
G-------------------------------------------------------------------------|
D-5-5-5-5-5-5-5-5-5-5-5-5-5-5-5-0-3-3-3-3-3-3-3-3-3-3-3-3~--3-3-0---------|
A-3-3-3-3-3-3-3-3-3-3-3-3-3-3-3-0-1-1-1-1-1-1-1-1-1-1-1-1~--1-1-0---------|
E-------------------------------------------------------------------------|
	Note: This is essentially the chorus chord progression

Guitar Overdub: x 1

e-------------------------------------------------------------------------|
B-------------------------------------------------------------------------|
G-8-----10-----12-----15----------8------10------12------15---------------|
D-------------------------------------------------------------------------|
A-------------------------------------------------------------------------|
E-------------------------------------------------------------------------|

e-------------------------------------------------------------------------|
B-------------------------------------------------------------------------|
G-12-----------12-----------------10-------------10-----------------------|
D-------------------------------------------------------------------------|
A-------------------------------------------------------------------------|
E-------------------------------------------------------------------------|
	Note: Tremolo pick the above notes.  This is essentially Travis'
	      chorus riff.

Double Chorus:


Claudio Double Chorus Chords: x 1

e-------------------------------------------------------------------------|
B-------------------------------------------------------------------------|
G-------------------------------------------------------------------------|
D-------------------------------------------------------------------------|
A-6-6-6-6-6-6-6-6-6-6-6-6-6-6-0-0-3-3-3-3-3-3-3-3-3-3-3-3-3-3-3-0---------|
E-4-4-4-4-4-4-4-4-4-4-4-4-4-4-0-0-1-1-1-1-1-1-1-1-1-1-1-1-1-1-1-0---------|

e-------------------------------------------------------------------------|
B-------------------------------------------------------------------------|
G-------------------------------------------------------------------------|
D-5-5-5-5-5-5-5-5-5-5-5-5-5-5-5-0-3-3-3-3-3-3-3-3-3-3-3-3~--3-3-0---------|
A-3-3-3-3-3-3-3-3-3-3-3-3-3-3-3-0-1-1-1-1-1-1-1-1-1-1-1-1~--1-1-0---------|
E-------------------------------------------------------------------------|

e-------------------------------------------------------------------------|
B-------------------------------------------------------------------------|
G-------------------------------------------------------------------------|
D-------------------------------------------------------------------------|
A-6-6-6-6-6-6-6-6-6-6-6-6-6-6-6-0-3-3-3-3-3-3-3-3-3-3-3-3-3-3-3-0---------|
E-4-4-4-4-4-4-4-4-4-4-4-4-4-4-4-0-1-1-1-1-1-1-1-1-1-1-1-1-1-1-1-0---------|

e-------------------------------------------------------------------------|
B-------------------------------------------------------------------------|
G-------------------------------------------------------------------------|
D-5-5-5-5-5-5-5-5-5-5-5-5-5-5-5-0-3-3-3-3-3-3-3-3-3-3-3-3-3-3-3-0---------|
A-3-3-3-3-3-3-3-3-3-3-3-3-3-3-3-0-1-1-1-1-1-1-1-1-1-1-1-1-1-1-1-0---------|
E-------------------------------------------------------------------------|

e-------------------------------------------------------------------------|
B-------------------------------------------------------------------------|
G-------------------------------------------------------------------------|
D-------------------------------------------------------------------------|
A-6-6-6-6-6-6-6-6-6-6-6-6-6-6-6-0-8-8-8-8-8-8-8-8-8-8-8-8-8---------------|
E-4-4-4-4-4-4-4-4-4-4-4-4-4-4-4-0-6-6-6-6-6-6-6-6-6-6-6-6-6-12/-0-0-------|
                                                                . .

Travis Double Chorus Lead: x 1

e-------------------------------------------------------------------------|
B-------------------------------------------------------------------------|
G-8-----10-----12-----15----------8------10------12------15---------------|
D-------------------------------------------------------------------------|
A-------------------------------------------------------------------------|
E-------------------------------------------------------------------------|

e-------------------------------------------------------------------------|
B-------------------------------------------------------------------------|
G-12---------12-------------------10------------10------------------------|
D-------------------------------------------------------------------------|
A-------------------------------------------------------------------------|
E-------------------------------------------------------------------------|

e-------------------------------------------------------------------------|
B-------------------------------------------------------------------------|
G-8----------10----------12----------15---------17---------17-------------|
D-------------------------------------------------------------------------|
A-------------------------------------------------------------------------|
E-------------------------------------------------------------------------|

e-------------------------------------------------------------------------|
B-------------------------------------------------------------------------|
G-8----------10----------12----------15---------12---------10-------------|
D-------------------------------------------------------------------------|
A-------------------------------------------------------------------------|
E-------------------------------------------------------------------------|

e-------------------------------------------------------------------------|
B-------------------------------------------------------------------------|
G-8-----10-----12-----15----------17-----------17b19r17-------------------|
D-------------------------------------------------------------------------|
A-------------------------------------------------------------------------|
E-------------------------------------------------------------------------|


Outro:


Claudio Outro Riff: x 1

e---------------------------------------------|
B---------------------------------------------|
G---------------------------------------------|
D-5-5-x-x-x-5-5----------3--------------------|
A-3-3-x-x-x-3-3--------4---4-3/1p0-1----------|
E----------------0h3h6------------------------|

e---------------------------------------------|
B---------------------------------------------|
G---------------------------------------------|
D-5-5-x-x-x-5-5----------3--------------------|
A-3-3-x-x-x-3-3--------4---4-3/1p0-1----------|
E----------------0h3h6------------------------|

e---------------------------------------------|
B---------------------------------------------|
G---------------------------------------------|
D-5-5-x-x-x-5-5----------3--------------------|
A-3-3-x-x-x-3-3--------4---4-3/1p0-1----------|
E----------------0h3h6------------------------|

e---------------------------------------------|
B---------------------------------------------|
G---------------------------------------------|
D-5-5-x-x-x-5-5-------------------------------|
A-3-3-x-x-x-3-3-------------------------------|
E---------------------------------------------|

Travis Outro Lead: x 1

e---------------------------------------------|
B---------------------------------------------|
G---------------------------------------------|
D-5-5-----1-1---------------------------------|
A-----3-3-----3-3~-----------13/--------------|
E---------------------------------------------|

e---------------------------------------------|
B---------------------------------------------|
G---------------------------------------------|
D-5-3-----1-3---------------------------------|
A-----3-3-----3-3~-----------13/--------------|
E---------------------------------------------|

e---------------------------------------------|
B---------------------------------------------|
G---------------------------------------------|
D-5-5-----1-1---------------------------------|
A-----3-3-----3-3~-----------13/--------------|
E---------------------------------------------|

e---------------------------------------------|
B---------------------------------------------|
G---------------------------------------------|
D-5-5-x-x-x-5-5-------------------------------|
A-3-3-x-x-x-3-3-------------------------------|
E---------------------------------------------|


_________________________________________________________________________________________


Track: "Guns of Summer"
Tuning: Drop D w/ the G string tuned down 1/2 step (F#)

Travis' Solo & Last Chorus Overdub Lead tabbed by Chaperoni

To finally get this one right, I slowed down a live video to be able to tell
what Claudio was doing.  See the links below.

Live Videos:
http://www.roxwel.com/player/coheedandcambriagunsofsummerlive.html?1=1&detect_bitrate=_2000
http://www.youtube.com/watch?v=ASzp1-YpIcc&feature=mh_lolz&list=HL1318912120
http://www.youtube.com/watch?v=gOVY2h_7IhE


Intro:


Claudio Verse Riff: x 2

e |------------------------------------------------------------------|
B |------------------------------------------------------------------|
F#|------------------------------------------------------------------|
D |----------7-----------7-----------7-----------7--------0h7p0------|
A |--------8-----------8-----------8-----------8----0h7h8-------8p0--|
D |-0h7h10------0h7h10------0h7h10------0h7h10-----------------------|

Travis Verse Lead I: x 1

e |------------------------------------------------------------------|
B |------------------------------------------------------------------|
G |-7-7-7-7-5-5-7-7-7-7-5-5-7-7-7-7-5-5-7-7-7-7-5-5-7-7-7-7-7b9r7----|   x 3
D |------------------------------------------------------------------|
A |------------------------------------------------------------------|
D |------------------------------------------------------------------|
    . . . . . . . . . . . . . . . . . . . . . . . . . . . .

e |------------------------------------------------------------------|
B |------------------------------------------------------------------|
G |-7-7-7-7-5-5-7-7-7-7-7-7-7-7-7-7-7-7-6-6-5-5-4-4-3-3-2-2-1-1-0-0--|
D |------------------------------------------------------------------|
A |------------------------------------------------------------------|
D |------------------------------------------------------------------|
    . . . . . . . . . . . . . . . .
	Note: The very end of the above lead is pretty much Travis
	      sliding from the 7th fret to the open note as he's
	      tremolo picking.


1st Verse:


Claudio Verse Riff Lead: x 6

Travis Verse Lead II: x 1

e |------------------------------------------------------------------|
B |-8-8-8-8-8-8-8-8-8-8-8-8-8-8-8-8-8-8-8-8-8-8-8-8-8-8-8-8-8-8-8-8--|
G |------------------------------------------------------------------|
D |------------------------------------------------------------------|
A |------------------------------------------------------------------|
D |------------------------------------------------------------------|
    . . . . . . . . . . . . . . . . . . . . . . . . . . . . . . . .

e |------------------------------------------------------------------|
B |-8-8-8-8-8-8-8-8-8-8-8-8-8-8-8-8-8-8-8-8-8-8-8-8-7-7-6-6-5-5-4-3--|
G |------------------------------------------------------------------|
D |------------------------------------------------------------------|
A |------------------------------------------------------------------|
D |------------------------------------------------------------------|
    . . . . . . . . . . . . . . . . . . . . . . . . . . . . . . . .

e |------------------------------------------------------------------|
B |-8-8-8-8-8-8-8-8-8-8-8-8-8-8-8-8-8-8-8-8-8-8-8-8-8-8-8-8-8-8-8-8--|
G |------------------------------------------------------------------|
D |------------------------------------------------------------------|
A |------------------------------------------------------------------|
D |------------------------------------------------------------------|
    . . . . . . . . . . . . . . . . . . . . . . . . . . . . . . . .

e |------------------------------------------------------------------|
B |-8-8-8-8-8-8-8-8-8-8-8-8-8-8-8-8-8-8-8-8-8-8-8-8-7-7-6-6-5-5-4-3--|
G |------------------------------------------------------------------|
D |------------------------------------------------------------------|
A |------------------------------------------------------------------|
D |------------------------------------------------------------------|
    . . . . . . . . . . . . . . . . . . . . . . . . . . . . . . . .

e |------------------------------------------------------------------|
B |------------------------------------------------------------------|
G |-7-7-7-7-5-5-7-7-7-7-5-5-7-7-7-7-5-5-7-7-7-7-5-5-7-7-7-7-7b9r7----|   x 3
D |------------------------------------------------------------------|
A |------------------------------------------------------------------|
D |------------------------------------------------------------------|
    . . . . . . . . . . . . . . . . . . . . . . . . . . . .

e |------------------------------------------------------------------|
B |------------------------------------------------------------------|
G |-7-7-7-7-5-5-7-7-7-7-7-7-7-7-7-7-7-7-6-6-5-5-4-4-3-3-2-2-1-1-0-0--|
D |------------------------------------------------------------------|
A |------------------------------------------------------------------|
D |------------------------------------------------------------------|
    . . . . . . . . . . . . . . . .

e |------------------------------------------------------------------|
B |-8-8-8-8-8-8-8-8-8-8-8-8-8-8-8-8-8-8-8-8-8-8-8-8-8-8-8-8-8-8-8-8--|
G |------------------------------------------------------------------|
D |------------------------------------------------------------------|
A |------------------------------------------------------------------|
D |------------------------------------------------------------------|
    . . . . . . . . . . . . . . . . . . . . . . . . . . . . . . . .

e |------------------------------------------------------------------|
B |-8-8-8-8-8-8-8-8-8-8-8-8-8-8-8-8-8-8-8-8-8-8-8-8-7-7-6-6-5-5-4-3--|
G |------------------------------------------------------------------|
D |------------------------------------------------------------------|
A |------------------------------------------------------------------|
D |------------------------------------------------------------------|
    . . . . . . . . . . . . . . . . . . . . . . . . . . . . . . . .

e |------------------------------------------------------------------|
B |-8-8-8-8-8-8-8-8-8-8-8-8-8-8-8-8-8-8-8-8-8-8-8-8-8-8-8-8-8-8-8-8--|
G |------------------------------------------------------------------|
D |------------------------------------------------------------------|
A |------------------------------------------------------------------|
D |------------------------------------------------------------------|
    . . . . . . . . . . . . . . . . . . . . . . . . . . . . . . . .

e |------------------------------------------------------------------|
B |-8-8-8-8-8-8-8-8-8-8-8-8-8-8-8-8-8-8-8-8-8-8-8-8-7-7-6-6-5-5-4-3--|
G |------------------------------------------------------------------|
D |------------------------------------------------------------------|
A |------------------------------------------------------------------|
D |------------------------------------------------------------------|
    . . . . . . . . . . . . . . . . . . . . . . . . . . . . . . . .


1st Pre-Chorus I:


Claudio Pre-Chorus I Riff: x 8

e |----------------------------|
B |----------------------------|
F#|----------------------------|
D |-----------------0h5--------|
A |---0-3-5-----3-5----t6------|
D |-0-------3-0----------------|

Travis Pre-Chorus I Lead: x 2

e |-------------------------------------------------------------|
B |-5-2-------5-7--------------5-2------5-7------5-7p5----------|
G |-----3-0-------5-7--5\3-0-------3-0------5-7-----------------|
D |-------------------------------------------------------------|
A |-------------------------------------------------------------|
D |-------------------------------------------------------------|

e |-------------------------------------------------------------|
B |-5-2------5-7------------------------------------------------|
F#|-----3-0------5-7--5\3-0---7----5--3--2--0-2--3--5-----------|
D |-------------------------------------------------------------|
A |-------------------------------------------------------------|
D |-------------------------------------------------------------|


1st Pre-Chorus II:


Claudio Pre-Chorus II Riff: x 3

e |--------------------------------------------------------------------|
B |--------------------------------------------------------------------|
F#|-0h7---0-0h7---0-0h7---0-0h7---0-0h8---0-0h8---0-0h8---0-0h8---0----|
D |----t8------t8------t8------t8------t9------t9------t9------t9------|
A |--------------------------------------------------------------------|
D |--------------------------------------------------------------------|

Travis Pre-Chorus II Lead: x 3

e |--------------------------------------------------------------------|
B |--------------------------------------------------------------------|
G |--------------------------------------------------------------------|
D |-4-4-4-4-4-4-4-4-4-4-4-4-4-4-4-5-5-5-5-5-5-5-5-5-5-5-5-5-5-5-5------|
A |--------------------------------------------------------------------|
D |--------------------------------------------------------------------|


1st Chorus:


Claudio Chorus Chords: x 2

e |---------------------------------------------------------------------|
B |---------------------------------------------------------------------|
F#|-------------------------------------------------------------3b5r3---|
D |-0---0-0-0-0-0-0-0-2-2---2-2-2-2---0---0-0-0-0-0-0-0-2-2-2-2---------|
A |-0---0-0-0-0-0-0-0-2-2---2-2-2-2---0---0-0-0-0-0-0-0-2-2-2-2---------|
D |-0---0-0-0-0-0-0-0-2-2---2-2-2-2---0---0-0-0-0-0-0-0-2-2-2-2---------|

Travis Chorus Chords: x 2

e |---------------------------------------------------------------------|
B |---------------------------------------------------------------------|
G |---------------------------------------------------------------------|
D |-0---0-0-0-0-0-0-0-2-2---2-2-2-2---0---0-0-0-0-0-0-0-2-2-2-2-7b9r7---|
A |-0---0-0-0-0-0-0-0-2-2---2-2-2-2---0---0-0-0-0-0-0-0-2-2-2-2---------|
D |-0---0-0-0-0-0-0-0-2-2---2-2-2-2---0---0-0-0-0-0-0-0-2-2-2-2---------|


Break:


Claudio Verse Riff x 2

Travis Verse Lead III x 1

e |------------------------------------------------------------------|
B |------------------------------------------------------------------|
G |-7-7-7-7-5-5-7-7-7-7-5-5-7-7-7-7-5-5-7-7-7-7-5-5-7-7-7-7-7b9r7----|   x 2
D |------------------------------------------------------------------|
A |------------------------------------------------------------------|
D |------------------------------------------------------------------|
    . . . . . . . . . . . . . . . . . . . . . . . . . . . .


2nd Verse:


Claudio Verse Riff x 4

Travis Verse Lead IV x 1

e |------------------------------------------------------------------|
B |-8-8-8-8-8-8-8-8-8-8-8-8-8-8-8-8-8-8-8-8-8-8-8-8-8-8-8-8-8-8-8-8--|
G |------------------------------------------------------------------|
D |------------------------------------------------------------------|
A |------------------------------------------------------------------|
D |------------------------------------------------------------------|
    . . . . . . . . . . . . . . . . . . . . . . . . . . . . . . . .

e |------------------------------------------------------------------|
B |-8-8-8-8-8-8-8-8-8-8-8-8-8-8-8-8-8-8-8-8-8-8-8-8-7-7-6-6-5-5-4-3--|
G |------------------------------------------------------------------|
D |------------------------------------------------------------------|
A |------------------------------------------------------------------|
D |------------------------------------------------------------------|
    . . . . . . . . . . . . . . . . . . . . . . . . . . . . . . . .

e |------------------------------------------------------------------|
B |-8-8-8-8-8-8-8-8-8-8-8-8-8-8-8-8-8-8-8-8-8-8-8-8-8-8-8-8-8-8-8-8--|
G |------------------------------------------------------------------|
D |------------------------------------------------------------------|
A |------------------------------------------------------------------|
D |------------------------------------------------------------------|
    . . . . . . . . . . . . . . . . . . . . . . . . . . . . . . . .

e |------------------------------------------------------------------|
B |-8-8-8-8-8-8-8-8-8-8-8-8-8-8-8-8-8-8-8-8-8-8-8-8-7-7-6-6-5-5-4-3--|
G |------------------------------------------------------------------|
D |------------------------------------------------------------------|
A |------------------------------------------------------------------|
D |------------------------------------------------------------------|
    . . . . . . . . . . . . . . . . . . . . . . . . . . . . . . . .

e |------------------------------------------------------------------|
B |------------------------------------------------------------------|
G |-7-7-7-7-5-5-7-7-7-7-5-5-7-7-7-7-5-5-7-7-7-7-5-5-7-7-7-7-7b9r7----|   x 3
D |------------------------------------------------------------------|
A |------------------------------------------------------------------|
D |------------------------------------------------------------------|
    . . . . . . . . . . . . . . . . . . . . . . . . . . . .

e |------------------------------------------------------------------|
B |------------------------------------------------------------------|
G |-7-7-7-7-5-5-7-7-7-7-7-7-7-7-7-7-7-7-6-6-5-5-4-4-3-3-2-2-1-1-0-0--|
D |------------------------------------------------------------------|
A |------------------------------------------------------------------|
D |------------------------------------------------------------------|
    . . . . . . . . . . . . . . . .


2nd Pre-Chorus I:


Claudio Pre-Chorus I Riff x 8

Travis Pre-Chorus I Lead x 2


2nd Pre-Chorus II:


Claudio Pre-Chorus II Riff x 3

Travis Pre-Chorus II Lead x 3


2nd Chorus:


Claudio Chorus Chords x 2

Travis Chorus Chords x 2


Bridge:


Claudio Bridge Riff: x 2

e |----10-------10----10-12----12--------12----12-13----13-------13----13---|
B |-------10-10----10-------10----10-10-----10-------10----10-10----10------|
F#|-------------------------------------------------------------------------|
D |-0~----------------------------------------------------------------------|
A |-0~----------------------------------------------------------------------|
D |-0~----------------------------------------------------------------------|

e |-12----12-------12----12--|
B |----10----10-10----10-----|
F#|--------------------------|
D |--------------------------|
A |--------------------------|
D |--------------------------|
	Note: Let that open D chord ring throughout the lead notes.

Travis Bridge Chords: x 1

e |---------------------------------------------------------------|
B |---------------------------------------------------------------|
G |-------------------7~----------------7~------------------------|
D |-0~----------------x-----------------x-----------------0~------|
A |-0~----------------5~----------------5~----------------0~------|
D |-0~----------------0~----------------0~----------------0~------|

e |-15~---------------15~-----------------------------------------|
B |----17~---------------17~--------------------------------------|
G |-------17~---------------17~---------7~------------------------|
D |-------------------------------------x-----------------0~------|
A |-------------------------------------5~----------------0~------|
D |-------------------------------------0~----------------0~------|


Pre-Solo:

Claudio Pre-Chorus I Riff x 2 (palm-muted)

Travis does not play anything over this part


Solo Section I:


Claudio Pre-Chorus I Riff x 4

Travis Solo: x 1

e |---------------------------13-13-13-13-----------------------------------------|
B |-10----10----13------------------------15-15-15-------13----------------13h15~-|
G |-12b14-12b14----r12-10--------------------------14-14----14-14-12----12--------|
D |-----------------------12-----------------------------------------15-----------|
A |-------------------------------------------------------------------------------|
D |-------------------------------------------------------------------------------|

e |-------------------------------------------------------------------------------|
B |-------------------------------------------------------------------------------|
G |-13-------------------------------12-13-12----12------------13-----------------|
D |----15p14-12-15p14----14p12-14-15----------15----15-12-15-------15--14--15--14-|
A |-------------------15----------------------------------------------------------|
D |-------------------------------------------------------------------------------|

Solo Section II:


Claudio Solo:
I am not going to attempt to put what he's doing into tab form.  Really, you cannot.
Claudio has a bunch of effects going and he is essentially just picking muted strings
combined with some open notes, actual notes, and harmonics.  If you want to get a feel
for what he's doing, watch some of the live videos linked in this tab.  Just do
whatever random stuff comes to mind essentially.


Travis Pre-Chorus I Riff: x 4

e |---------------------------------|
B |---------------------------------|
G |---------------------------------|
D |-------------------------0h5-----|
A |----0~-3~-5~-------3~-5~----t6~--|
D |-0~----------3~-0~---------------|
	Note: This is the same as Claudio's Pre-Chorus I Riff, except that
	      you let all the notes ring.


3rd Pre-Chorus II:


Claudio Pre-Chorus II Riff x 3

Travis Pre-Chorus II Lead x 3


3rd & 4th Chorus:


Claudio Chorus Chords x 4

Travis Chorus Chords x 4

Last Chorus Overdub Lead: x 4

e |-----------------------------------|
B |-5~---7-----5-----7-----5-----7----|
G |--------7-----6-----7-----6-----7~-|
D |----------9-----7-----9-----7------|
A |-----------------------------------|
D |-----------------------------------|


Outro:


Claudio Outro Chords: x 1

e |---------------------------------------------------------------------|
B |---------------------------------------------------------------------|
F#|---------------------------------------------------------------------|
D |-0---0-0-0-0-0-0-0-2-2---2-2-2-2---0---0-0-0-0-0-0-0-2-2--2-2-2-2----| x 3
A |-0---0-0-0-0-0-0-0-2-2---2-2-2-2---0---0-0-0-0-0-0-0-2-2--2-2-2-2----|
D |-0---0-0-0-0-0-0-0-2-2---2-2-2-2---0---0-0-0-0-0-0-0-2-2--2-2-2-2----|

e |---------------------------------------------------------------------|
B |---------------------------------------------------------------------|
F#|-------------------------------------------------------------3b5r3---|
D |-0---0-0-0-0-0-0-0-2-2---2-2-2-2---0---0-0-0-0-0-0-0-2-2-2-2---------|
A |-0---0-0-0-0-0-0-0-2-2---2-2-2-2---0---0-0-0-0-0-0-0-2-2-2-2---------|
D |-0---0-0-0-0-0-0-0-2-2---2-2-2-2---0---0-0-0-0-0-0-0-2-2-2-2---------|

Travis Outro Lead: x 1

e |-----------------------------------------------|
B |-----------------------------------------------|
G |--------7b9r7----------------------------------| x 2
D |-----------------------------------------------|
A |-5v-----------7b8r7--5v------9h10-9h10-9-5-----|
D |-----------------------------------------------|

e |-----------------------------------------------|
B |--------8/10-8-7-8-7h8p7-----------------------|
G |-----------------------------------------------|
D |-----------------------------------------------|
A |-5v--------------------------9h10-9h10-9-5-----|
D |-----------------------------------------------|

e |-----------------------------------------------|
B |-----------------------------------------------|
G |--------7b9r7----------------------------------|
D |-----------------------------------------------|
A |-5v-----------7b8r7--5v------9h10-9h10-9-------|
D |-----------------------------------------------|
	Note: When Travis' plays this lead, he has his phase shifter effects on.


_________________________________________________________________________________


Track: "Here We Are Juggernaut"
Tuning: Standard

This tab was substantiated with live videos
to confirm hand positioning and notes.

Live Videos:
http://www.youtube.com/watch?v=M5DQXTxFJeQ
http://www.youtube.com/watch?v=nxYGT9QQAKA


Intro:


Claudio Verse Riff I: x 2

e-------------------------------------------------------------------------|
B-------------------------------------------------------------------------|
G-------------------------------------------------------------------------|
D-------2-----------------x-x-----------2---------------------------------|
A-2-4-4---4-4-2-4-4-4---------x-x-2-4-4---4-4-2-4-4-4--------7/-----------|
E---------------------0-------------------------------0----x--------------|

Travis Verse Riff: x 2

e-------------------------------------------------------------------------|
B-------------------------------------------------------------------------|
G-------------------------------------------------------------------------|
D------------------------------------------------------------6/-----------|
A-4~---------------------------------------------------------7/-----------|
E----------------------------------------------------------x--------------|
	Note: Travis plays this using a talkbox live.


1st Verse:


"Keep your secrets in the dark..."


Claudio Verse Riff I x 2

Claudio Verse Riff II: x 1

e-------------------------------------------------------------------------|
B-------------------------------------------------------------------------|
G-------------------------------------------------------------------------|
D---6---4-----4-6-7-6-4---6-4-------6---4-----4-6-7-6-4---6-4-------------|
A-4---7---6-7-----------7-----7-6-4---7---6-7-----------7-----7-6---------|
E-------------------------------------------------------------------------|

Claudio Verse Riff III x 1

e-------------------------------------------------------------------------|
B-------------------------------------------------------------------------|
G-------------------------------------------------------------------------|
D-------2-----------------x-x-----------2---------------------------------|
A-2-4-4---4-4-2-4-4-4---------x-x-2-4-4---4-4-2-4--5/12\0-----------------|
E---------------------0----------------------------5/12\0-----------------|
	On the end of this riff, Claudio slides his hand up the fretboard
	and then back down the fretboard leading into the chorus

Travis Verse Riff x 4


1st Chorus:


"Heart, we were stupid, we got caught..."


Claudio Chorus Chords: x 1

e-------------------------------------------------------------------------|
B-------------------------------------------------------------------------|
G-------------------------------------------------------------------------|
D-------------------------------------------------------------------------|
A-5-5-5-5-5-5-5-5-5-5-5-5-5-5-5-5-5-5-5-5-5-5-5-5-5-5-5-5-5-5-5-0---------|
E-7-7-7-7-7-7-7-7-7-7-7-7-7-7-7-7-7-7-7-7-7-7-7-7-7-7-7-7-7-7-7-0---------|

e-------------------------------------------------------------------------|
B-------------------------------------------------------------------------|
G-------------------------------------------------------------------------|
D-------------------------------------------------------------------------|
A-2-2-2-2-2-2-2-2-2-2-2-2-2-2-2-2-2-2-2-2-2-2-2-2-2-2-2-2-2-2-2-0---------|
E-0-0-0-0-0-0-0-0-0-0-0-0-0-0-0-0-0-0-0-0-0-0-0-0-0-0-0-0-0-0-0-0---------|

e-------------------------------------------------------------------------|
B-------------------------------------------------------------------------|
G-------------------------------------------------------------------------|
D-------------------------------------------------------------------------|
A-5-5-5-5-5-5-5-5-5-5-5-5-5-5-5-5-5-5-5-5-5-5-5-5-5-5-5-5-5-5-5-0---------|
E-7-7-7-7-7-7-7-7-7-7-7-7-7-7-7-7-7-7-7-7-7-7-7-7-7-7-7-7-7-7-7-0---------|

Travis Verse Lead: x 1

Part I: x 2

e-------------------------------------------------------------------------|
B-------------------------------------------------------------------------|
G-------------------------------------------------------------------------|
D-14-------16-14-13-------14-------16-14-13-------------------------------|
A----14-16----------16-14----14-16----------16-14-------------------------|
E-------------------------------------------------------------------------|

Part II: x 2

e-------------------------------------------------------------------------|
B-------------------------------------------------------------------------|
G----16-----------------16------------------------------------------------|
D-14------16----14-16---------16----14-16---------------------------------|
A-------------------------------------------------------------------------|
E-------------------------------------------------------------------------|

Part I x 2


Interlude:


Claudio Verse Riff x 1

Travis Lead: x 1

e-------------------------------------------------------------------------|
B-------------------------------------------------------------------------|
G-------------------------------------------------------------------------|
D--------------6------9--------------------6------9-----------------------|
A-4-----7--------------------4------7-------------------------------------|
E-------------------------------------------------------------------------|
	Note: Travis plays this with a phase shifter pedal.


2nd Verse:


"Courage broken lashed to scars..."


Claudio Verse Riff I x 2

Claudio Verse Riff III x 1

Travis Verse Riff x 3


2nd Chorus:

Same as 1st Chorus


Bridge I:


"So let's hang us a hangman..."


Claudio Bridge I Riff: x 3

e-------------------------------------------------------------------------|
B-------------------------------------------------------------------------|
G-------------------------------------------------------------------------|
D-0h6-6-6-6-6-6-6-6-6-6-6-6-6-6-6-0h4-4-4-4-4-4-4-4-4-4-4-4-4-4-4---------|
A-0h4-4-4-4-4-4-4-4-4-4-4-4-4-4-4-0h2-2-2-2-2-2-2-2-2-2-2-2-2-2-2---------|
E-------------------------------------------------------------------------|
      . . . . . . . . . . . . . .     . . . . . . . . . . . . . .

e-------------------------------------------------------------------------|
B-----------------5-5-5-5-5-5-5-5-4-4-4-4-4-4-4-4-2-2-2-2-2-2-2-2---------|
G-----------------x-x-x-x-x-x-x-x-x-x-x-x-x-x-x-x-x-x-x-x-x-x-x-x---------|
D-0h2-2-2-2-2-2-2-2-2-2-2-2-2-2-2-2-2-2-2-2-2-2-2-2-2-2-2-2-2-2-2---------|
A-0-0-0-0-0-0-0-0-0-0-0-0-0-0-0-0-0-0-0-0-0-0-0-0-0-0-0-0-0-0-0-0---------|
E-------------------------------------------------------------------------|
      . . . . . .

Travis Bridge I Lead: x 3

e----4---------------------------------2----------------------------------|
B-5-----5---4----------------------2--------4------2----------------------|
G-------------------------------------------------------------------------|
D-------------------------------------------------------------------------|
A-------------------------------------------------------------------------|
E-------------------------------------------------------------------------|

e-----------------0-0-0-0-0-0-0-0-0-0-0-0-0-0-0-0-0-0-0-0-0-0-0-0---------|
B-0---------------5-5-5-5-5-5-5-5-4-4-4-4-4-4-4-4-2-2-2-2-2-2-2-2---------|
G-------------------------------------------------------------------------|
D-------------------------------------------------------------------------|
A-------------------------------------------------------------------------|
E-------------------------------------------------------------------------|

Travis Bridge I Lead Alt. Live: x 3
e----4-----------------------------------2--------------------------------|
B-5-----5---4----------------------2--4------4------2---------------------|
G-------------------------------------------------------------------------|
D-------------------------------------------------------------------------|
A-------------------------------------------------------------------------|
E-------------------------------------------------------------------------|

e-----------------0-0-0-0-0-0-0-0-0-0-0-0-0-0-0-0-0-0-0-0-0-0-0-0---------|
B-0---------------5-5-5-5-5-5-5-5-4-4-4-4-4-4-4-4-2-2-2-2-2-2-2-2---------|
G-------------------------------------------------------------------------|
D-------------------------------------------------------------------------|
A-------------------------------------------------------------------------|
E-------------------------------------------------------------------------|
	Note: As played live, Travis can be seen playing the above section.
	      Only the difference of one note compared to what was
	      recorded on YotBR.

Bridge II:


"Answer me, did we take this to far..."


Claudio Bridge II Riff: x 4

e-------------------------------------------------------------------------|
B-------------------------------------------------------------------------|
G-------------------------------------------------------------------------|
D-6-6-6-6-6-6-6-6-7-7-7-7-7-7-7-7-9-9-9-9-9-9-9-9-7-7-7-7-6---4-----------|
A-4-4-4-4-4-4-4-4-4-4-4-4-4-4-4-4-0-0-0-0-0-0-0-0-0-0-0-0-0-0-0-0---------|
E-------------------------------------------------------------------------|
    . . . . . . .   . . . . . . .   . . . . . . .   . . .   .   .


Travis Bridge II Lead: x 1

e-7---------------7-------------------------------------------------------|
B-5-----------------5------------10--10--10--9--9-------------------------|
G-6-------------------6-4-6------------------------9----------------------|
D-------------------------------------------------------------------------|
A-------------------------------------------------------------------------|
E-------------------------------------------------------------------------|

e-----------------7-------------------------------------------------------|
B-------------------5------------10--10--10--9--9-------------------------|
G-8-------------------6-4-6------------------------9----------------------|
D-------------------------------------------------------------------------|
A-------------------------------------------------------------------------|
E-------------------------------------------------------------------------|

e-7---------------7-------------------------------------------------------|
B-5-----------------5------------10--10--10--9--9-------------------------|
G-6-------------------6-4-6------------------------9----------------------|
D-------------------------------------------------------------------------|
A-------------------------------------------------------------------------|
E---------------------------------------------------
Добавлено: 07.03.2012
Другие материалы по этой песне:
  • Аккорды и текст

Страница создана 07.03.2012
http://primanota.ru/coheed-and-cambria/year-of-the-black-rainbow-album-chords.htm
Привет, Гость.
Предлагаем пройти революционный курс по гитаре.
Подарок от PrimaNota.Ru, забирай!