PrimaNota.ru - самый крупный в мире бесплатный архив песенных текстов, аккордов, табулатур и нот


Coheed & Cambria - Wake up version 2 - таба, видео

Регистрация Запомнить меня
Войти через:  Facebook Google Twitter Vk Yandex Mail.ru

Coheed & Cambria - Wake up version 2 - таба, видео

Печатать
Просмотров: 83


WAKE UP
                        As recorded by Coheed and Cambria
(From the 2005 Album GOOD APOLLO, I'M BURNING STAR IV - VOLUME ONE: FROM FEAR THROUGH THE EYES OF MADNESS)

Words by Claudio Sanchez
Music by Coheed and Cambria
Transcribed by sprinklerthief

          A5                  A5XIV                 G5                   E5
      x x x 2 5 5        x x x 14 17 17       x x x 12 15 15        x x x 9 12 12

Gtr I (Eb Ab Db Gb Bb Eb) - 'acous.'
Gtr II (Eb Ab Db Gb Bb Eb) - 'w/chorus'
Gtr III (Eb Ab Db Gb Bb Eb) - 'w/ tremolo + chorus'
Gtr IV (Eb Ab Db Gb Bb Eb) - 'keyb. arr. for gtr.'

 Intro
  Slowly Q=72
  (Fsus2)                      (C)            (G/B)
 4/4
  Gtr I
  E  E   E     E E  E    E E   S S E  E     E E  E     E S  S
|----------------------------|---------------------------------|
|---(3)-------------3--------|---------------------------------|
|-------(0)--------------0---|--------------0-2--------0-2p=0--|
|--------------0-----------0-|--------0----------0-------------|
|-3--------------3-----------|-----2---------------------------|
|----------------------------|-2h3------------2----------------|
|
| Gtr II
| E  E.     E.   E.   E.   E   E   E.    E.   E.    E.   S  S
|----------------------------|-----8----10----7----------------|
|----8------6----5-----------|---------------------10----8-----|
|---------------------7----5-|-----------------------------(9)-|
|----------------------------|---------------------------------|
|----------------------------|---------------------------------|
|----------------------------|---------------------------------|


  (Fsus2)                   (C)            (G/B)
  E E  E    E E  E    E E   S S E  E     E E  E     E S  S
|-------------------------|---------------------------------||
|---3------------3--------|---------------------------------||
|------0--------------0---|--------------0-2--------0-2p=0--||
|-----------0-----------0-|--------0----------0-------------||
|-3-----------3-----------|-----2---------------------------||
|-------------------------|-2h3------------2----------------||
|
| E E.   E.   E.   E.   E   E   E.    E.   E.    E.   S  S
|-------------------------|-----8----10----7----------------||
|---8----6----5-----------|---------------------10----8-----||
|------------------7----5-|-----------------------------(9)-||
|-------------------------|---------------------------------||
|-------------------------|---------------------------------||
|-------------------------|---------------------------------||


   Verse
    (Fsus2)           (C)       (G/B)
    E E E E E E E E   S S E E E E E E S S  4x
||------------------|----------------------||
||o---3-------3-----|---------------------o||
||------0-------0---|---------0-2---0-2p0--||
||--------0-------0-|-------0-----0--------||
||o-3-------3-------|-----2---------------o||
||------------------|-2h3-------2----------||


 Pre-Chorus
  (Fsus2)           (C)           (G/B)
  E E E E E E E E   S S E  E    E E  E    E S S
|-----------------|-----------------------------|
|---3-------3-----|-----------------------------|
|-----0-------0---|-------------0-2-------0-2p0-|
|-------0-------0-|--------0---------0----------|
|-3-------3-------|-----2-----------------------|
|-----------------|-2h3-----------2-------------|
|
|                       Gtr II
| W                 E   E.   E.   E.   E.   S S
|-----------------|---------------5-------------|
|-----------------|----------8---------8--------|
|-----------------|-----5-------------------7p5-|
|-----------------|-----------------------------|
|-----------------|-----------------------------|
|-----------------|-----------------------------|


  (Fsus2)             (G/B)
   E  E E E E E E E   S S E  E    E E  E    E S S
|-------------------|-----------------------------|
|-----3-------3-----|-----------------------------|
|-------0-------0---|-------------0-2-------0-2p0-|
|---------0-------0-|--------0---------0----------|
|--3--------3-------|-----2-----------------------|
|-------------------|-2h3-----------2-------------|
|
| +W                  E   E.   E.   E.   E.   E
|-------------------|---------------5-------------|
|-------------------|----------8---------8--------|
|-(5)---------------|-----5-------------------5---|
|-------------------|-----------------------------|
|-------------------|-----------------------------|
|-------------------|-----------------------------|


  (Fsus2)             (C)       (G/B)
   E  E E E E E E E   S S E E E E E E S S
|-------------------|---------------------|
|-----3-------3-----|---------------------|
|-------0-------0---|---------0-2---0-2p0-|
|---------0-------0-|-------0-----0-------|
|--3--------3-------|-----2---------------|
|-------------------|-2h3-------2---------|
|
| +W                  W
|-------------------|---------------------|
|-------------------|---------------------|
|-(5)---------------|---------------------|
|-------------------|---------------------|
|-------------------|---------------------|
|-------------------|---------------------|


  (Fsus2)           (C)        (G/B)
  E E E E E E E E   S  S E E E E E E S S
|-----------------|----------------------||
|---3-------3-----|----------------------||
|-----0-------0---|----------0-2---0-2p0-||
|-------0-------0-|--------0-----0-------||
|-3-------3-------|------2---------------||
|-----------------|-2h=3-------2---------||
|
| W                 H..              S S
|-----------------|----------------------||
|-----------------|----------------------||
|-----------------|------------------7p5-||
|-----------------|----------------------||
|-----------------|----------------------||
|-----------------|----------------------||


 Chorus
  (C)                       (Fsus2)
   S  S S S E E E E E S S   E  E     E     E     E  E               S S S S
|-------------------------|----3-----------3--------3-----------------------|
|-------------------------|----3-----------3--------3---------------3p0-----|
|-------------------------|---------------------------------------------2---|
|-----------0---------0h2-|-----------------------------------------------0h|
|-------0h2---2---2-0-----|-3--------3-----------3--------------------------|
|--0h=3---------3---------|-------------------------------------------------|
|
|                             Gtr III
| +W                        E  S  S  S. T  S  S  E  S   a   S   a   Q
|-------------------------|-------------------------------------------------|
|-------------------------|-------------------------------------------------|
|-(5)---------------------|---17s19s17--------------------------------------|
|-------------------------|---------------17s19s17-17-(17)s19-(19)s22-------|
|-------------------------|-------------------------------------------------|
|-------------------------|-------------------------------------------------|


  (Dm)
  S S  E    E     E      E  E S S S S
|--------------------------------------|
|------1----------1---------0h1p0------|
|---2-------------2---------2-----2----|
|-2---------2------------2----------2--|
|--------------------------------------|
|--------------------------------------|
|
| E    S  E    S  S  S  +H
|--------------------------------------|
|--------------------------------------|
|--------------------------------------|
|-----19-17----------------------------|
|-------------17-20-19-(19)------------|
|--------------------------------------|


  (C/F)                            (C)
  E  E    E    E     E E E     E     S  S S S E E E E E S S
|--------------------------------|--------------------------|
|----0---------0-------0-------0-|--------------------------|
|----0---------0---------------0-|--------------------------|
|--------------------------------|------------0---------0h2-|
|-3-------3----------3---3-------|--------0h2---2---2-0-----|
|--------------------------------|---0h=3---------3---------|
|
| E  S  E    E    Q.        E.      +W
|--------------------------------|--------------------------|
|--------------------------------|--------------------------|
|--------------------------------|--------------------------|
|---19-17------------------------|--------------------------|
|-----------20---19--------19----|-(19)---------------------|
|--------------------------------|--------------------------|


  (Fsus2)
  E  E     E     E     E  E               S S S S
|----3-----------3--------3------------------------|
|----3-----------3--------3---------------3p0------|
|---------------------------------------------2----|
|-----------------------------------------------0h=|
|-3--------3-----------3---------------------------|
|--------------------------------------------------|
|
| E  S  S  S. T  S  S  E  S   a   S   a   Q
|--------------------------------------------------|
|--------------------------------------------------|
|---17s19s17---------------------------------------|
|---------------17s19s17-17-(17)s19-(19)s22--------|
|--------------------------------------------------|
|--------------------------------------------------|


  (Dm)                                Fsus2
  S S  E     E  E      E  E S S S S     W
|-----------------------------------|---------||
|------1--------1---------0h1p0-----|---------||
|---2-----------2---------2-----2---|---0-----||
|-2----------2---------2----------2-|---0-----||
|-----------------------------------|---3-----||
|-----------------------------------|---------||
|
| E    S  E.    S  S  +H               +W
|-----------------------------------|---------||
|-----------------------------------|---------||
|-----------------------------------|---------||
|-----19-17-------------------------|---------||
|--------------20-19-(19)-----------|-(19)----||
|-----------------------------------|---------||


 Verse
  (Fsus2)           (C)       (G/B)
  E E E E E E E E   S S E E E E E E S S
|-----------------|---------------------|
|---3-------3-----|---------------------|
|-----0-------0---|---------0-2---0-2p0-|
|-------0-------0-|-------0-----0-------|
|-3-------3-------|-----2---------------|
|-----------------|-2h3-------2---------|


  (Fsus2)           (C)          (G/B)
  E E E E E E E E   S S E   E  E E E    E S S
|-----------------|---------------------------|
|---3-------3-----|---------------------------|
|-----0-------0---|------------0-2------0-2p0-|
|-------0-------0-|---------0------0----------|
|-3-------3-------|-----2---------------------|
|-----------------|-2h3----------2------------|
|
|                       Gtr IV
| W                 E   S S Q.     S S  E S S
|-----------------|---------------------------|
|-----------------|---------------------8-----|
|-----------------|-----5-7-9------5-9----9-7-|
|-----------------|---------------------------|
|-----------------|--------------------10-----|
|-----------------|---------------------8-----|


  (Fsus2)           (C)       (G/B)
  E E E E E E E E   S S E E E E E E S S
|-----------------|---------------------|
|---3-------3-----|---------------------|
|-----0-------0---|---------0-2---0-2p0-|
|-------0-------0-|-------0-----0-------|
|-3-------3-------|-----2---------------|
|-----------------|-2h3-------2---------|
|
| W                 W
|-----------------|---------------------|
|-----------------|---------------------|
|-5---------------|---------------------|
|-----------------|---------------------|
|-----------------|---------------------|
|-----------------|---------------------|


  (Fsus2)           (C)       (G/B)
  E E E E E E E E   S S E E E E E E S S
|-----------------|---------------------||
|---3-------3-----|---------------------||
|-----0-------0---|---------0-2---0-2p0-||
|-------0-------0-|-------0-----0-------||
|-3-------3-------|-----2---------------||
|-----------------|-2h3-------2---------||


 Pre-Chorus
  (Fsus2)                (C)             (G/B)
  E   E E E E E E  E      S S E  E     E E  E     E S S
|----------------------|--------------------------------|
|-----3-------3--------|--------------------------------|
|-------0-------0------|---------------0-2--------0-2p0-|
|---------0--------0---|---------0----------0-----------|
|-3---------3----------|------2-------------------------|
|----------------------|--2h3------------2--------------|
|
|                             Gtr II
| W                       E   E.   E.    E.    E.   S S
|----------------------|-----------------5--------------|
|----------------------|-----------8-----------8--------|
|----------------------|------5---------------------7p5-|
|----------------------|--------------------------------|
|----------------------|--------------------------------|
|----------------------|--------------------------------|
|
|                 Gtr IV
| H..              S S    e   e  e     e e  Q.
|----------------------|--------------------------------|
|----------------------|--------------------------------|
|-----------------10-9-|-10---9--7----------------------|
|----------------------|--------------10-9--------------|
|----------------------|--------------------------------|
|----------------------|--------------------------------|


  (Fsus2)             (C)           (G/B)
   E  E E E E E E E   S S E  E    E E  E    E S S
|-------------------|-----------------------------|
|-----3-------3-----|-----------------------------|
|-------0-------0---|-------------0-2-------0-2p0-|
|---------0-------0-|--------0---------0----------|
|--3--------3-------|-----2-----------------------|
|-------------------|-2h3-----------2-------------|
|
| +W                  E   E.   E.   E.   E.   S S
|-------------------|---------------5-------------|
|-------------------|----------8---------8--------|
|-(5)---------------|-----5-------------------7p5-|
|-------------------|-----------------------------|
|-------------------|-----------------------------|
|-------------------|-----------------------------|


  (Fsus2)                 (C)             (G/B)
   E   E E E E E E  E      S S E  E     E E   E     E S S
|-----------------------|---------------------------------|
|------3-------3--------|---------------------------------|
|--------0-------0------|---------------0-2---------0-2p0-|
|----------0--------0---|---------0-----------0-----------|
|--3---------3----------|------2--------------------------|
|-----------------------|--2h3------------2---------------|
|
| +W                       E   E.   E.    E.    E.    S S
|-----------------------|-----------------5---------------|
|-----------------------|-----------8-----------8---------|
|-(5)-------------------|------5----------------------7p5-|
|-----------------------|---------------------------------|
|-----------------------|---------------------------------|
|-----------------------|---------------------------------|
|
|                  Gtr IV
|  H..              S S    e   e  e     e e   e     e e
|-----------------------|---------------------------------|
|-----------------------|---------------------------------|
|------------------10-9-|-10---9--7-----------------------|
|-----------------------|--------------10-9--------10-9---|
|-----------------------|--------------------10-----------|
|-----------------------|---------------------------------|


  (Fsus2)                 (C)             (G/B)
   E  E  E E E E E  E      S S E  E     E E  E    E S S
|-----------------------|-------------------------------|
|-----3--------3--------|-------------------------------|
|--------0-------0------|---------------0-2-------0-2p0-|
|----------0--------0---|---------0----------0----------|
|--3---------3----------|------2------------------------|
|-----------------------|--2h3------------2-------------|
|
| +W                       E   E.   E.    E.   E.   E
|-----------------------|-----------------5-------------|
|-----------------------|-----------8----------8--------|
|-(5)-------------------|------5--------------------5---|
|-----------------------|-------------------------------|
|-----------------------|-------------------------------|
|-----------------------|-------------------------------|
|
|  e  H.            S S    e   e  e     e e  e    e e
|-----------------------|-------------------------------|
|-----------------------|-------------------------------|
|------------------10-9-|-10---9--7----------7----------|
|--7--------------------|--------------10-9-------7-9---|
|-----------------------|-------------------------------|
|-----------------------|-------------------------------|


  (Fsus2)               (C)       (G/B)
   E  E   E E E E E E   S S E E E E E E S S
|---------------------|---------------------|
|-----3---------3-----|---------------------|
|---------0-------0---|---------0-2---0-2p0-|
|-----------0-------0-|-------0-----0-------|
|--3----------3-------|-----2---------------|
|---------------------|-2h3-------2---------|
|
| +W                    W
|---------------------|---------------------|
|---------------------|---------------------|
|-(5)-----------------|---------------------|
|---------------------|---------------------|
|---------------------|---------------------|
|---------------------|---------------------|
|
|  e  H..               W
|---------------------|---------------------|
|---------------------|---------------------|
|---------------------|---------------------|
|--9------------------|---------------------|
|---------------------|---------------------|
|---------------------|---------------------|


  (Fsus2)           (C)       (G/B)
  E E E E E E E E   S S E E E E E E S S
|-----------------|---------------------||
|---3-------3-----|---------------------||
|-----0-------0---|---------0-2---0-2p0-||
|-------0-------0-|-------0-----0-------||
|-3-------3-------|-----2---------------||
|-----------------|-2h3-------2---------||


 Out-Chorus
  (C)                     (Fsus2)
  S S S S E E E E E S S   E  E     E     E     E  E               S S S S
|-----------------------|----3-----------3--------3-----------------------|
|-----------------------|----3-----------3--------3---------------3p0-----|
|-----------------------|---------------------------------------------2---|
|---------0---------0h2-|-----------------------------------------------0h|
|-----0h2---2---2-0-----|-3--------3-----------3--------------------------|
|-0h3---------3---------|-------------------------------------------------|
|
|                           Gtr III
| W                       E  S  S  S. T  S  S  E  S   a   S   a   Q
|-----------------------|-------------------------------------------------|
|-----------------------|-------------------------------------------------|
|-----------------------|---17s19s17--------------------------------------|
|-----------------------|---------------17s19s17-17-(17)s19-(19)s22-------|
|-----------------------|-------------------------------------------------|
|-----------------------|-------------------------------------------------|
|
| Gtr IV
| W                       W
|-5---------------------|-------------------------------------------------|
|-5---------------------|-------------------------------------------------|
|-2---------------------|-------------------------------------------------|
|-----------------------|-------------------------------------------------|
|-----------------------|-------------------------------------------------|
|-----------------------|-------------------------------------------------|


  (Dm)
  S S  E    E     E      E  E S S S S
|--------------------------------------|
|------1----------1---------0h1p0------|
|---2-------------2---------2-----2----|
|-2---------2------------2----------2--|
|--------------------------------------|
|--------------------------------------|
|
| E    S  E    S  S  S  +H
|--------------------------------------|
|--------------------------------------|
|--------------------------------------|
|-----19-17----------------------------|
|-------------17-20-19-(19)------------|
|--------------------------------------|
|
| W
|-5------------------------------------|
|-5------------------------------------|
|-2------------------------------------|
|--------------------------------------|
|--------------------------------------|
|--------------------------------------|


  (C/F)                            (C)
  E  E    E    E     E E E     E     S  S S S E E E E E S S
|--------------------------------|--------------------------|
|----0---------0-------0-------0-|--------------------------|
|----0---------0---------------0-|--------------------------|
|--------------------------------|------------0---------0h2-|
|-3-------3----------3---3-------|--------0h2---2---2-0-----|
|--------------------------------|---0h=3---------3---------|
|
| E  S  E    E    Q.        E.      +W
|--------------------------------|--------------------------|
|--------------------------------|--------------------------|
|--------------------------------|--------------------------|
|---19-17------------------------|--------------------------|
|-----------20---19--------19----|-(19)---------------------|
|--------------------------------|--------------------------|
|
| W                                  W
|--------------------------------|---5----------------------|
|--------------------------------|---5----------------------|
|--------------------------------|---2----------------------|
|--------------------------------|--------------------------|
|--------------------------------|--------------------------|
|--------------------------------|--------------------------|


  (Fsus2)
  E  E     E     E     E  E               S S S S
|----3-----------3--------3------------------------|
|----3-----------3--------3---------------3p0------|
|---------------------------------------------2----|
|-----------------------------------------------0h=|
|-3--------3-----------3---------------------------|
|--------------------------------------------------|
|
| E  S  S  S. T  S  S  E  S   a   S   a   Q
|--------------------------------------------------|
|--------------------------------------------------|
|---17s19s17---------------------------------------|
|---------------17s19s17-17-(17)s19-(19)s22--------|
|--------------------------------------------------|
|--------------------------------------------------|
|
| W
|--------------------------------------------------|
|--------------------------------------------------|
|--------------------------------------------------|
|--------------------------------------------------|
|--------------------------------------------------|
|--------------------------------------------------|


  (Dm)                                (C/F)
  S S  E     E  E      E  E S S S S     E  E E E E E E E
|-----------------------------------|--------------------|
|------1--------1---------0h1p0-----|------0---0---0---0-|
|---2-----------2---------2-----2---|------0---0-------0-|
|-2----------2---------2----------2-|--------------------|
|-----------------------------------|---3----3---3---3---|
|-----------------------------------|--------------------|
|
| E    S  E.    S  S  +H               +W
|-----------------------------------|--------------------|
|-----------------------------------|--------------------|
|-----------------------------------|--------------------|
|-----19-17-------------------------|--------------------|
|--------------20-19-(19)-----------|-(19)---------------|
|-----------------------------------|--------------------|
|
| W                                     W
|-----------------------------------|---5----------------|
|-----------------------------------|---5----------------|
|-----------------------------------|---2----------------|
|-----------------------------------|--------------------|
|-----------------------------------|--------------------|
|-----------------------------------|--------------------|


  (C)
   S  S  S  S  E     E     E     E   E S S
|------------------------------------------|
|------------------------------------------|
|------------------------------------------|
|--------------0-----------------------0h2-|
|--------0h=2--------2-----------2---0-----|
|--0h=3--------------------3---------------|
|
|  S  S  S  S  S  S  S  S  S  S  E   Q
|-20p17-------20p17------------------------|
|-------20p17-------20p17-20-17------------|
|-------------------------------19--17-----|
|------------------------------------------|
|------------------------------------------|
|------------------------------------------|
|
|  E     E     Q           E     Q.
|------------------------------------------|
|------------------------------------------|
|------------------------------------------|
|--2-----2-----5-----------2-----2---------|
|------------------------------------------|
|------------------------------------------|


  (Fsus2)
  E  E     E     E     E  E               S S S S
|----3-----------3--------3-----------------------|
|----3-----------3--------3---------------3p0-----|
|---------------------------------------------2---|
|-----------------------------------------------0h|
|-3--------3-----------3--------------------------|
|-------------------------------------------------|
|
| E  S  S  S. T  S  S  E  S   a   S   a   Q
|-------------------------------------------------|
|-------------------------------------------------|
|---17s19s17--------------------------------------|
|---------------17s19s17-17-(17)s19-(19)s22-------|
|-------------------------------------------------|
|-------------------------------------------------|
|
| W
|-------------------------------------------------|
|-------------------------------------------------|
|-------------------------------------------------|
|-------------------------------------------------|
|-------------------------------------------------|
|-------------------------------------------------|


  (Dm)                                        (C/F)
   S  S  E     E     E      E   E S  S  S S   E   E    E     E     E  E  E      E
|-------------------------------------------|-------------------------------------|
|--------1-----------1----------0h1p=0------|-----0----------0--------0---------0-|
|-----2--------------2----------2-------2---|-----0----------0------------------0-|
|--2-----------2------------2-------------2-|-------------------------------------|
|-------------------------------------------|-3--------3-----------3-----3--------|
|-------------------------------------------|-------------------------------------|
|
|  E     S  E     S  S  S  +H                 E   S  E    E     Q.          E.
|-------------------------------------------|-------------------------------------|
|-------------------------------------------|-------------------------------------|
|-------------------------------------------|-------------------------------------|
|-------19-17-------------------------------|----19-17----------------------------|
|----------------17-20-19-(19)--------------|------------20----19----------19-----|
|-------------------------------------------|-------------------------------------|
|
|  E.       E.       Q          E.   E.       Q.             Q        E  S  S   E
|-15-------15-------17---------15---12------|---------------17-------15-15-13--12-|
|-15-------15-------17---------15---12------|---------------17-------15-----------|
|-12-------12-------14---------12----9------|---------------14-------12-----------|
|-------------------------------------------|-------------------------------------|
|-------------------------------------------|-------------------------------------|
|-------------------------------------------|-------------------------------------|


  (C)
   S  S  S  S  E     E     E     E  E  S  S
|-------------------------------------------|
|-------------------------------------------|
|-------------------------------------------|
|--------------0-----------------------0h=2-|
|--------0h=2--------2-----------2--0-------|
|--0h=3--------------------3----------------|
|
|  S  S  S  S  S  S  S  S  S  S  E  E.    S
|-20p17-------20p17-------------------------|
|-------20p17-------20p17-20-17-------------|
|-------------------------------19-17----17-|
|-------------------------------------------|
|-------------------------------------------|
|-------------------------------------------|
|
|  W
|-------------------------------------------|
|-------------------------------------------|
|-------------------------------------------|
|-------------------------------------------|
|-------------------------------------------|
|-------------------------------------------|


  (Fsus2)                               (Dm)
   E     E         E   E  E E S S S S   S S  E     E  E  E E S S S S
|--------3-------------3----3---------|------------------------------|
|--------3-------------3----3-3p0-----|------1--------1----0h1p0-----|
|---------------------------------2---|---2-----------2----2-----2---|
|-----------------------------------0h|=2----------2-----2---------2-|
|--3---------------3------3-----------|------------------------------|
|-------------------------------------|------------------------------|
|
|  E     S  S     +E   E  H             E    S  E.    E  H
|-------------------------------------|------------------------------|
|-------20----------------------------|------------------------------|
|-19b21----19b21r(19)----17-----------|------------------------------|
|---------------------19--------------|-----19-17--------------------|
|-------------------------------------|--------------20-19-----------|
|-------------------------------------|------------------------------|
|
|  H.                         E   E     W
|-----------------------------5-------|------------------------------|
|-----------------------------5-------|------------------------------|
|-----------------------------2-------|------------------------------|
|-------------------------------------|------------------------------|
|-------------------------------------|------------------------------|
|-------------------------------------|------------------------------|


  Fsus2
   W          +W
|-----------|--------*|
|-----------|--------*|
|--0--------|-(0)----*|
|--0--------|-(0)----*|
|--3--------|-(3)----*|
|-----------|--------*|
|
| Gtr II
|  W           W
|-----------|--------*|
|-----------|--------*|
|-----------|--------*|
|-----------|--------*|
|-19--------|-19-----*|
|-----------|--------*|


Duration Legend
---------------
W - whole; H - half; Q - quarter; E - 8th; S - 16th; T - 32nd; X - 64th; a - acciaccatura
+ - note tied to previous; . - note dotted; .. - note double dotted
Uncapitalized letters represent notes that are staccato (1/2 duration)
Irregular groupings are notated above the duration line
Duration letters will always appear directly above the note/fret number it represents the
duration for.  Duration letters with no fret number below them represent rests.  Multi-
bar rests are notated in the form Wxn, where n is the number of bars to rest for.  Low
melody durations appear below the staff

Tablature Legend
----------------
 h   - hammer-on
 p   - pull-off
 b   - bend
 pb  - pre-bend
 r   - bend release (if no number after the r, then release immediately)
 /  - slide into or out of (from/to nowhere)
 s   - legato slide
 S   - shift slide
  - natural harmonic
[n]  - artificial harmonic
n(n) - tapped harmonic
 ~   - vibrato
 tr  - trill
 T   - tap
 TP  - trem. picking
 PM  - palm muting
n/  - tremolo bar dip; n = amount to dip
 n  - tremolo bar down
 n/  - tremolo bar up
/n  - tremolo bar inverted dip
 =   - hold bend; also acts as connecting device for hammers/pulls
   - volume swell (louder/softer)
 x   - on rhythm slash represents muted slash
 o   - on rhythm slash represents single note slash

Misc Legend
-----------
 |  - bar
||  - double bar
||o - repeat start
o|| - repeat end
*|  - double bar (ending)
 :  - bar (freetime)
 $  - Segno
 amp;  - Coda
Tempo markers -  = BPM(8/16=s8/s16), where s8 = swing 8ths, s16 = swing 16ths


Добавлено: 03.12.2013
Другие материалы по этой песне:
  • Аккорды и текст

Страница создана 03.12.2013
http://primanota.ru/coheed-and-cambria/wake-up-version-2-chords.htm
Привет, Гость.
Предлагаем пройти революционный курс по гитаре.
Подарок от PrimaNota.Ru, забирай!