PrimaNota.ru - самый крупный в мире бесплатный архив песенных текстов, аккордов, табулатур и нот


Coheed & Cambria - Under The Milky Way - таба, видео

Регистрация Запомнить меня
Войти через:  Facebook Google Twitter Vk Yandex Mail.ru

Coheed & Cambria - Under The Milky Way - таба, видео

Печатать
Просмотров: 117
Artist: Coheed and Cambria
Track: "Under the Milky Way" (The Church Cover)
As Played Live: Lollapalooza 2009
Tuning: E flat
v 1.0

Tabbed by Larry Jones

This is a track they covered, originally by The Church, seemingly a few times
in 2009. I have gone with the more rock version that they played that year.
I have compiled it from several live videos, and it is based around the 
version played at Lollapalooza 2009. This should be pretty much note for
note. There is some uncertainty in the first two measures of Travis'
solo, but I think I captured the majority of it; the last two measures cut
through the recording more and are shown here note for note.

http://www.youtube.com/watch?v=8Y_D8ijnF40 (Claudio Lollapalooza Audio)
http://www.youtube.com/watch?v=9pEijXUcxYc (Travis' Solo Hand Positioning)
http://www.youtube.com/watch?v=F_8IuFkcs6U (Travis' Solo Audio)

Key:
/ - slide
. - palm mute
v - vibrato
p - pull off
h - hammer on
~ - let ring
b - bend to sound like the following note
r - release bend
* - natural harmonic

Guitar & Drums Intro:

Claudio Main Theme: x 6
eb-------------------------------------|
Bb-----8-----10-----8-----10-----8-----|
Gb-7-9---7-9----7-9---7-9----7-9---7---|
Db-------------------------------------|
Ab-------------------------------------|
Eb-------------------------------------|
. . . . . . . . . . . . . . . .

eb-------------------------------------|
Bb-----8-----10-----8-----10-----8-----|
Gb-7-9---7-9----7-9---7-9----7-9---7---|
Db-------------------------------------|
Ab-------------------------------------|
Eb-------------------------------------|
. . . . . . . . . . . . . . . .

Alternatively, you can hear Claudio sometimes play the following variation
eb-------------------------------------|
Bb-----8-----10-----8-----8-----8------|
Gb-7-9---7-9----7-9---7-9---7-9---7----|
Db-------------------------------------|
Ab-------------------------------------|
Eb-------------------------------------|
. . . . . . . . . . . . . . . .

Pre-Verse:

Claudio Alt. Main Theme: x 2
eb-------------------------------------|
Bb-----8-----10-----8-----10-----8v----|
Gb-7-9---7-9----7-9---7-9----7-9-------|
Db-------------------------------------|
Ab-------------------------------------|
Eb-------------------------------------|
. . . . . . . . . . . . . .

eb-------------------------------------|
Bb-----8-----10-----8-----10-----8-----|
Gb-7-9---7-9----7-9---7-9----7-9---7---|
Db-------------------------------------|
Ab-------------------------------------|
Eb-------------------------------------|
. . . . . . . . . . . . . . . .

Travis Main Theme: x 2
eb-----------------------------------------------------------------|
Bb-----1---1p0------3p0---3p0---0------1---1p0-----3p0---3p0---0---|
Gb-2-2---2-----2--0-----0-----0----------2-----2-0-----0-----0-----|
Db---------------------------------3-3-----------------------------|
Ab-----------------------------------------------------------------|
Eb-----------------------------------------------------------------|

Keyboard Pre-Verse Section: x 2
eb-------------12-----------------------------|
Bb----12-13-15----15-13----10-13-12-13-12-----|
Gb-14-------------------10----------------12--|
Db--------------------------------------------|
Ab--------------------------------------------|
Eb--------------------------------------------|

1st Verse:

Claudio Main Theme x 7

Claudio Transition: x 1
eb-------------------------------------|
Bb-----8-----10-----8-----10-----8-----|
Gb-7-9---7-9----7-9---7-9----7-9---7---|
Db-------------------------------------|
Ab-------------------------------------|
Eb-------------------------------------|
. . . . . . . . . . . . . . . .

eb-------------------------------------|
Bb-8-8-8-8-8-8-8-8-8-8-8-8-8-8//-------|
Gb-9-9-9-9-9-9-9-9-9-9-9-9-9-9//-------|
Db-------------------------------------|
Ab-------------------------------------|
Eb-------------------------------------|
. . . . . 
As you play that last chord, start out playing lightly then
build in intensity towards the end; vibratoing as you go along

Travis main Theme x 8

1st Chorus:

Claudio Chorus Chords: x 2
eb-------------------------------------|
Bb-------------------------------------|
Gb-------------------------------------|
Db-------------------------------------|
Ab-5--------------3--------------------|
Eb-3--------------1------//\\----------|
Strum accordingly. Claudio always slides on that last note.
Sometimes he slides into a note high up in the scale and then
vibratoes that note

Travis Chorus Chords: x 2
eb-3--------------1--------------------|
Bb-0--------------1--------------------|
Gb-0--------------2--------------------|
Db-0--------------3--------------------|
Ab-2-----------------------------------|
Eb-3-----------------------------------|
Strum accordingly

2nd Verse:

Claudio Main Theme x 3
Claudio Transition x 1
Travis Main Theme x 4

2nd Chorus:

Claudio Chorus Chords x 4
Travis Chorus Chords x 4

Bridge/Solo:

Claudio Bridge Chords x 4
eb------------------------------------------------------------------|
Bb------------------------------------------------------------------|
Gb------------------------------------------------------------------|
Db-5-5-5-5-5-5-5-5--------------------------------------------------|
Ab-3-3-3-3-3-3-3-3---5-5-5-5-5-5-5-7-7-7-7-7-7-7-7---7-7-7-7-7-7-/\-|
Eb-------------------3-3-3-3-3-3-3-5-5-5-5-5-5-5-5---5-5-5-5-5-5-/\-|

Travis Bridge Solo: x 1 (Four Parts)

Part One
eb-----------------------------8-7-5-------------------|
Bb-----------------------------------8-6p5-------------|
Gb--------------5-7p5---5------------------7-5---5-----|
Db------5---5h7-------7---7v-------------------7----7v-|
Ab-/7-7---7--------------------------------------------|
Eb-----------------------------------------------------|

Part Two
eb-----------------------------------------------------------|
Bb----------------------5h6p5h6--------------5h6p5h6-6h8p6h8-|
Gb---------------5h7p5h7--------------5h7p5h7----------------|
Db--------5h7p5h7--------------5h7p5h7-----------------------|
Ab-5h7p5h7---------------------------------------------------|
Eb-----------------------------------------------------------|

eb------------------|
Bb-6p5--------------|
Gb-----7-5-7-5------|
Db-------------7----|
Ab------------------|
Eb---------------5v-|

Part Three
eb-20p17---20p17----------------------------------------------|
Bb------17------17-20----17-----------------------------------|
Gb--------------------19----17-19p17----17--------------------|
Db-----------------------------------19----17-19----17-19-19v-|
Ab-----------------------------------------------19-----------|
Eb------------------------------------------------------------|

eb--------------------------------------------------|
Bb------------------------------------------20------|
Gb-19p17----17-19p17----17-19p17----17-19b21--19b21-|
Db-------19----------19----------19-----------------|
Ab--------------------------------------------------|
Eb--------------------------------------------------|

Part Four 
eb-20p17--20p17--20p17--20p17--20p17---|
Bb------17-----17-----17-----17-----17-|
Gb-------------------------------------|
Db-------------------------------------|
Ab-------------------------------------|
Eb-------------------------------------|

eb-22p17--22p17--22p17--22p17--22p17---|
Bb------17-----17-----17-----17-----17-|
Gb-------------------------------------|
Db-------------------------------------|
Ab-------------------------------------|
Eb-------------------------------------|

eb-19b20-19-17-19-17-----------------------|
Bb-------------------20-17-20-17-----------|
Gb-------------------------------19-17-19v-|
Db-----------------------------------------|
Ab-----------------------------------------|
Eb-----------------------------------------|

3rd Verse:

Claudio Main Theme x 3
Claudio Transition x 1
Travis Main Theme x 4

3rd Chorus:

Claudio Chorus Chords x 8
Travis Chorus Chords x 8

Outro:

Claudio Main Theme x 3
Claudio Transition x 1
Travis Main Theme x 4

Claudio End: x 1
eb----------|
Bb----------|
Gb-7h9v-----|
Db----------|
Ab----------|
Eb----------|

Travis End: x 1
eb-0--------|
Bb-1--------|
Gb-2--------|
Db-2--------|
Ab-0--------|
Eb----------|
Добавлено: 02.05.2012
Другие материалы по этой песне:

Страница создана 04.03.2012
http://primanota.ru/coheed-and-cambria/under-the-milky-way-chords.htm
Привет, Гость.
Предлагаем пройти революционный курс по гитаре.
Подарок от PrimaNota.Ru, забирай!