PrimaNota.ru - самый крупный в мире бесплатный архив песенных текстов, аккордов, табулатур и нот


Coheed & Cambria - Three evils embodied in love and shadow 1 - таба, видео

Регистрация Запомнить меня
Войти через:  Facebook Google Twitter Vk Yandex Mail.ru

Coheed & Cambria - Three evils embodied in love and shadow 1 - таба, видео

Печатать
Просмотров: 77


THREE EVILS (EMBODIED IN LOVE AND SHADOW)
                        As recorded by Coheed and Cambria
           (From the 2003 Album IN KEEPING SECRETS OF SILENT EARTH: 3)

Words by Claudio Sanchez
Music by Coheed and Cambria
Transcribed by Fatty Mcgee + sprinklerthief

Gtr I (E A D G B E) - 'dist.'
Gtr II (E A D G B E) - 'dist.'
Gtr III (E A D G B E) - 'dist.'

 Intro
  Moderate Rock Q=87
  A          Asus4   D5F#5        D5/A
 4/4
  Gtr I
   S  S S  S  S  S S S  S  S S  S  S  S S  S
|--------------------------------------------|
|--------------------------------------------|
|----------------------11-11---11------------|
|-11-11---11-12-12---0-11-11---11-12-12---12-|
|-12-12---12-12-12---0--9--9----9--0--0---12-|
|--------------------------------------------|


  A          Asus4   D5F#5        D5/A
   S  S S  S  S  S S S  S  S S  S  S  S S  S
|--------------------------------------------||
|--------------------------------------------||
|----------------------11-11---11------------||
|-11-11---11-12-12---0-11-11---11-12-12---12-||
|-12-12---12-12-12---0--9--9----9--0--0---12-||
|--------------------------------------------||


   Verse
    A          Asus4   D5/A6         D5/A
    Gtr I
     S  S S  S  S  S S  S  S  S S  S  S  S S  S
||----------------------------------------------|
||o---------------------------------------------|
||------------------------11-11---11------------|
||--11-11---11-12-12----0-11-11---11-12-12---12-|
||o-12-12---12-12-12----0--9--9----9--0--0---12-|
||----------------------------------------------|
|
|   Gtr II
|    S  S S  S  S  S S  S  S  S S  S  S  S S  S
||----------------------------------------------|
||o---------------------------------------------|
||----------------------------------------------|
||--11-11---11-12-12---12-16-16---16-12-12---12-|
||o--0--0----0--0--0----0--0--0----0--0--0----0-|
||----------------------------------------------|


  A          Asus4   D5/A6         D5/A
   S  S S  S  S  S S  S  S  S S  S  S  S S  S
|---------------------------------------------|
|---------------------------------------------|
|-----------------------11-11---11------------|
|-11-11---11-12-12----0-11-11---11-12-12---12-|
|-12-12---12-12-12----0--9--9----9--0--0---12-|
|---------------------------------------------|
|
|  S  S S  S  S  S S  S  S  S S  S  S  S S  S
|---------------------------------------------|
|---------------------------------------------|
|---------------------------------------------|
|-11-11---11-12-12---12-16-16---16-12-12---12-|
|--0--0----0--0--0----0--0--0----0--0--0----0-|
|---------------------------------------------|


  A           Asus4    D5/A6          D5/A
   S  S  S  S  S  S  S  S  S  S  S  S  S  S  S  S
|-------------------------------------------------|
|-------------------------------------------------|
|-------------------------11-11-11-11-------------|
|-11-11-11-11-12-12-12--0-11-11-11-11-12-12-12-12-|
|-12-12-12-12-12-12-12--0--9--9--9--9-12-12-12-12-|
|-------------------------------------------------|
|
|  S  S  S  S  S  S  S  S  S  S  S  S  S  S  S  S
|-------------------------------------------------|
|-------------------------------------------------|
|-------------------------------------------------|
|-11-11-11-11-12-12-12-12-16-16-16-16-12-12-12-12-|
|--0--0--0--0--0--0--0--0--0--0--0--0--0--0--0--0-|
|-------------------------------------------------|


                                   1.,2.
  B5
  S S S S S S S S S S S S S S S S   S S S S S S S S S S S S S S S S     3x
|---------------------------------|-------------------------------------||
|---------------------------------|------------------------------------o||
|---------------------------------|-------------------------------------||
|---------------------------------|-------------------------------------||
|-9-9-9-9-9-9-9-9-9-9-9-9-9-9-9-9-|-9-9-9-9-9-9-9-9-9-9-9-9-9-9-9-9----o||
|-7-7-7-7-7-7-7-7-7-7-7-7-7-7-7-7-|-7-7-7-7-7-7-7-7-7-7-7-7-7-7-7-7-----||
|
| S S S S S S S S S S S S S S S S   S S S S S S S S S S S S S S S S     3x
|---------------------------------|-------------------------------------||
|---------------------------------|------------------------------------o||
|---------------------------------|-------------------------------------||
|---------------------------------|-------------------------------------||
|-9-9-9-9-9-9-9-9-9-9-9-9-9-9-9-9-|-9-9-9-9-9-9-9-9-9-9-9-9-9-9-9-9----o||
|-7-7-7-7-7-7-7-7-7-7-7-7-7-7-7-7-|-7-7-7-7-7-7-7-7-7-7-7-7-7-7-7-7-----||


  3.
  B5                        C#5A5/EC5
  Gtrs I, II
  S S S S S S S S S S S S S  E S    S  S  S  S  S  S  S  S  S  S  S  S  S  S  S  S
|--------------------------------|-------------------------------------------------|
|--------------------------------|-------------------------------------------------|
|--------------------------------|-------------------------------------------------|
|--------------------------------|-------------------------------------------------|
|-9-9-9-9-9-9-9-9-9-9-9-9-9-11-0-|-12-12-12-12-12-12-12-12-12-12-12-12-12-12-12-12-|
|-7-7-7-7-7-7-7-7-7-7-7-7-7--9-0-|-10-10-10-10-10-10-10-10-10-10-10-10-10-10-10-10-|


   S  S  S  S  S  S  S  S  S  S  S  S  S  S  S  S
|-------------------------------------------------||
|-------------------------------------------------||
|-------------------------------------------------||
|-------------------------------------------------||
|-12-12-12-12-12-12-12-12-12-12-12-12-12-12-12-12-||
|-10-10-10-10-10-10-10-10-10-10-10-10-10-10-10-10-||


   Chorus
    A5                                B5               F#m7
    Gtrs I, II
    PM----------------------------|     PM---------------------------|
    S S S S S S S S S S S S S S S S   S S  S S S S S S S S S S S S S S
||----------------------------------|----------------------------------|
||o---------------------------------|----------------------------------|
||----------------------------------|-4--------------------------------|
||----------------------------------|-4-4--4-4-4-4-4-4-2-2-2-2-2-2-2-2-|
||o-7-7-7-7-7-7-7-7-7-7-7-7-7-7-7-7-|-2-2--2-2-2-2-2-2-0-0-0-0-0-0-0-0-|
||--5-5-5-5-5-5-5-5-5-5-5-5-5-5-5-5-|------------------2-2-2-2-2-2-2-2-|
|
|   Gtr III
|   PM|   PM|   PM|   PM|   PM|   PM----|    PM|   PM|   PM|   PM|   PM
|   S S S S S S S S S S S S S S S S   S S  S S S S S S S S S S S S S S
||----------------------------------|----------------------------------|
||o-----9-----------9---------------|-----10-----------9---------------|
||------------9-----------9-----6---|------------9-----------9-----6---|
||--7-7---7-7---7-7---7-7---7-7---7-|-7-7----7-7---7-7---7-7---7-7---7-|
||o---------------------------------|----------------------------------|
||----------------------------------|----------------------------------|


  G5
   PM--------------------------------------------
   S  S  S  S  S  S  S  S S  S  S  S  S  S S  S
|-----------------------------------------------|
|-----------------------------------------------|
|-----------------------------------------------|
|-----------------------------------------------|
|--5--5--5--5--5--5--5--5-5--5--5--5--5--5-5--5-|
|--3--3--3--3--3--3--3--3-3--3--3--3--3--3-3--3-|
|
|  PM|      PM|      PM|     PM|      PM|     PM-
|  S  S  S  S  S  S  S  S S  S  S  S  S  S S  S
|-----------------------------------------------|
|-----------------------------------------------|
|-------12--------------------------------------|
|----------------12-------9-------12-------9----|
|-10-10----10-10----10-10---10-10----10-10---10-|
|-----------------------------------------------|


                             D
 ----------------------|
   S  S  S  S  S  S  S  S  S  S  S  S  S  S  S  S
|--------------------------------------------------||
|-------------------------------------------------o||
|--------------------------------------------------||
|--------------------------------------------------||
|--5--5--5--5--5--5--5--5--x-10p=9----10-----9h10-o||
|--3--3--3--3--3--3--3--3--x-------10-10-10-10-----||
|
|----|      PM|      PM---|
|  S  S  S  S  S  S  S  S  S  S  S  S  S  S  S  S
|--------------------------------------------------||
|-------------------------------------------------o||
|-------12-----------------------------------------||
|----------------12----------12p11----12----11h12--||
|-10-10----10-10----10-10-10-------12----12-------o||
|--------------------------------------------------||


   Verse
    A          Asus4   D5/A6         D5/A
    Gtr I
     S  S S  S  S  S S  S  S  S S  S  S  S S  S
||----------------------------------------------|
||o---------------------------------------------|
||------------------------11-11---11------------|
||--11-11---11-12-12----0-11-11---11-12-12---12-|
||o-12-12---12-12-12----0--9--9----9--0--0---12-|
||----------------------------------------------|
|
|   Gtr II
|    S  S S  S  S  S S  S  S  S S  S  S  S S  S
||----------------------------------------------|
||o---------------------------------------------|
||----------------------------------------------|
||--11-11---11-12-12---12-16-16---16-12-12---12-|
||o--0--0----0--0--0----0--0--0----0--0--0----0-|
||----------------------------------------------|


  A          Asus4   D5/A6         D5/A
   S  S S  S  S  S S  S  S  S S  S  S  S S  S
|---------------------------------------------|
|---------------------------------------------|
|-----------------------11-11---11------------|
|-11-11---11-12-12----0-11-11---11-12-12---12-|
|-12-12---12-12-12----0--9--9----9--0--0---12-|
|---------------------------------------------|
|
|  S  S S  S  S  S S  S  S  S S  S  S  S S  S
|---------------------------------------------|
|---------------------------------------------|
|---------------------------------------------|
|-11-11---11-12-12---12-16-16---16-12-12---12-|
|--0--0----0--0--0----0--0--0----0--0--0----0-|
|---------------------------------------------|


  A           Asus4    D5/A6          D5/A
   S  S  S  S  S  S  S  S  S  S  S  S  S  S  S  S
|-------------------------------------------------|
|-------------------------------------------------|
|-------------------------11-11-11-11-------------|
|-11-11-11-11-12-12-12--0-11-11-11-11-12-12-12-12-|
|-12-12-12-12-12-12-12--0--9--9--9--9-12-12-12-12-|
|-------------------------------------------------|
|
|  S  S  S  S  S  S  S  S  S  S  S  S  S  S  S  S
|-------------------------------------------------|
|-------------------------------------------------|
|-------------------------------------------------|
|-11-11-11-11-12-12-12-12-16-16-16-16-12-12-12-12-|
|--0--0--0--0--0--0--0--0--0--0--0--0--0--0--0--0-|
|-------------------------------------------------|


                                   1.
  B5
  S S S S S S S S S S S S S S S S   S S S S S S S S S S S S S S S S
|---------------------------------|-------------------------------------||
|---------------------------------|------------------------------------o||
|---------------------------------|-------------------------------------||
|---------------------------------|-------------------------------------||
|-9-9-9-9-9-9-9-9-9-9-9-9-9-9-9-9-|-9-9-9-9-9-9-9-9-9-9-9-9-9-9-9-9----o||
|-7-7-7-7-7-7-7-7-7-7-7-7-7-7-7-7-|-7-7-7-7-7-7-7-7-7-7-7-7-7-7-7-7-----||
|
| S S S S S S S S S S S S S S S S   S S S S S S S S S S S S S S S S
|---------------------------------|-------------------------------------||
|---------------------------------|------------------------------------o||
|---------------------------------|-------------------------------------||
|---------------------------------|-------------------------------------||
|-9-9-9-9-9-9-9-9-9-9-9-9-9-9-9-9-|-9-9-9-9-9-9-9-9-9-9-9-9-9-9-9-9----o||
|-7-7-7-7-7-7-7-7-7-7-7-7-7-7-7-7-|-7-7-7-7-7-7-7-7-7-7-7-7-7-7-7-7-----||


  2.
  B5                        C#5A5/EC5
  Gtrs I, II
  S S S S S S S S S S S S S  E S    S  S  S  S  S  S  S  S  S  S  S  S  S  S  S  S
|--------------------------------|-------------------------------------------------|
|--------------------------------|-------------------------------------------------|
|--------------------------------|-------------------------------------------------|
|--------------------------------|-------------------------------------------------|
|-9-9-9-9-9-9-9-9-9-9-9-9-9-11-0-|-12-12-12-12-12-12-12-12-12-12-12-12-12-12-12-12-|
|-7-7-7-7-7-7-7-7-7-7-7-7-7--9-0-|-10-10-10-10-10-10-10-10-10-10-10-10-10-10-10-10-|


   S  S  S  S  S  S  S  S  S  S  S  S  S  S  S  S
|-------------------------------------------------||
|-------------------------------------------------||
|-------------------------------------------------||
|-------------------------------------------------||
|-12-12-12-12-12-12-12-12-12-12-12-12-12-12-12-12-||
|-10-10-10-10-10-10-10-10-10-10-10-10-10-10-10-10-||


   Chorus
    A5                                B5               F#m7
    Gtrs I, II
    PM----------------------------|     PM---------------------------|
    S S S S S S S S S S S S S S S S   S S  S S S S S S S S S S S S S S
||----------------------------------|----------------------------------|
||o---------------------------------|----------------------------------|
||----------------------------------|-4--------------------------------|
||----------------------------------|-4-4--4-4-4-4-4-4-2-2-2-2-2-2-2-2-|
||o-7-7-7-7-7-7-7-7-7-7-7-7-7-7-7-7-|-2-2--2-2-2-2-2-2-0-0-0-0-0-0-0-0-|
||--5-5-5-5-5-5-5-5-5-5-5-5-5-5-5-5-|------------------2-2-2-2-2-2-2-2-|
|
|   Gtr III
|   PM|   PM|   PM|   PM|   PM|   PM----|    PM|   PM|   PM|   PM|   PM
|   S S S S S S S S S S S S S S S S   S S  S S S S S S S S S S S S S S
||----------------------------------|----------------------------------|
||o-----9-----------9---------------|-----10-----------9---------------|
||------------9-----------9-----6---|------------9-----------9-----6---|
||--7-7---7-7---7-7---7-7---7-7---7-|-7-7----7-7---7-7---7-7---7-7---7-|
||o---------------------------------|----------------------------------|
||----------------------------------|----------------------------------|


  1.
  G5
   PM--------------------------------------------
   S  S  S  S  S  S  S  S S  S  S  S  S  S S  S
|-----------------------------------------------|
|-----------------------------------------------|
|-----------------------------------------------|
|-----------------------------------------------|
|--5--5--5--5--5--5--5--5-5--5--5--5--5--5-5--5-|
|--3--3--3--3--3--3--3--3-3--3--3--3--3--3-3--3-|
|
|  PM|      PM|      PM|     PM|      PM|     PM-
|  S  S  S  S  S  S  S  S S  S  S  S  S  S S  S
|-----------------------------------------------|
|-----------------------------------------------|
|-------12--------------------------------------|
|----------------12-------9-------12-------9----|
|-10-10----10-10----10-10---10-10----10-10---10-|
|-----------------------------------------------|


                             D
 ----------------------|
   S  S  S  S  S  S  S  S  S  S  S  S  S  S  S  S
|--------------------------------------------------||
|-------------------------------------------------o||
|--------------------------------------------------||
|--------------------------------------------------||
|--5--5--5--5--5--5--5--5--x-10p=9----10-----9h10-o||
|--3--3--3--3--3--3--3--3--x-------10-10-10-10-----||
|
|----|      PM|      PM---|
|  S  S  S  S  S  S  S  S  S  S  S  S  S  S  S  S
|--------------------------------------------------||
|-------------------------------------------------o||
|-------12-----------------------------------------||
|----------------12----------12p11----12----11h12--||
|-10-10----10-10----10-10-10-------12----12-------o||
|--------------------------------------------------||


  2.
  G5
   PM--------------------------------------------
   S  S  S  S  S  S  S  S S  S  S  S  S  S S  S
|-----------------------------------------------|
|-----------------------------------------------|
|-----------------------------------------------|
|-----------------------------------------------|
|--5--5--5--5--5--5--5--5-5--5--5--5--5--5-5--5-|
|--3--3--3--3--3--3--3--3-3--3--3--3--3--3-3--3-|
|
|  PM|      PM|      PM|     PM|      PM|     PM-
|  S  S  S  S  S  S  S  S S  S  S  S  S  S S  S
|-----------------------------------------------|
|-----------------------------------------------|
|-------12--------------------------------------|
|----------------12-------9-------12-------9----|
|-10-10----10-10----10-10---10-10----10-10---10-|
|-----------------------------------------------|


                                    F#5
 ----------------------|
   S  S  S  S  S  S  S  S Q  +E   S S
|-------------------------------------||
|-------------------------------------||
|-------------------------------------||
|-------------------------------------||
|--5--5--5--5--5--5--5--5-5--(5)---4-||
|--3--3--3--3--3--3--3--3-3--(3)---2-||
|
|----|      PM|      PM|
|  S  S  S  S  S  S  S  S Q  +E   E
|-------------------------------------||
|-------------------------------------||
|-------12----------------------------||
|----------------12-------9--(9)-----||
|-10-10----10-10----10-10-------------||
|-------------------------------------||


 Interlude
  F#5                 N.C.                              D5
 2/4                 4/4
  Gtrs I, II, III
  +S  S S S S S S S   S S S S +S  S S S +S  S S S S S S S
|-------------------|-------------------------------------|
|-------------------|-------------------------------------|
|-------------------|-------------------------------------|
|-------------------|-----------------------------------7-|
|-(4)-4-4-4-4-4-4-4-|---0-4-5-(5)-4-0-2-(2)-----0---7---5-|
|-(2)-2-2-2-2-2-2-2-|-2---------------------4-------------|


                                  F#5
  +S  S S S S S S S S S S S S S S S
|------------------------------------|
|------------------------------------|
|------------------------------------|
|-(7)-7-7-7-7-7-7-7-7-7-7-7-7-7-7----|
|-(5)-5-5-5-5-5-5-5-5-5-5-5-5-5-5-4--|
|---------------------------------2--|


  F#5                 N.C.                              D5
 2/4                 4/4
  Gtrs I, II
  +S  S S S S S S S   S S S S +S  S S S +S  S S S S S S S
|-------------------|-------------------------------------|
|-------------------|-------------------------------------|
|-------------------|-------------------------------------|
|-------------------|-----------------------------------7-|
|-(4)-4-4-4-4-4-4-4-|---0-4-5-(5)-4-0-2-(2)-----0---7---5-|
|-(2)-2-2-2-2-2-2-2-|-2---------------------4-------------|
|
| Gtr III
| +S  S S S S S S S   S S S S +S  S S S +S  S S S S S S S
|-------------------|-------------------------------------|
|-------------------|-------------------------------------|
|-------------------|-------------------------------------|
|-------------------|-----2-4-(4)-2---0-(0)---------6---7-|
|-(4)-4-4-4-4-4-4-4-|-0-4-----------4-------2---4-------5-|
|-(2)-2-2-2-2-2-2-2-|-------------------------------------|


                                  F#5
  +S  S S S S S S S S S S S S S S S
|------------------------------------|
|------------------------------------|
|------------------------------------|
|-(7)-7-7-7-7-7-7-7-7-7-7-7-7-7-7----|
|-(5)-5-5-5-5-5-5-5-5-5-5-5-5-5-5-4--|
|---------------------------------2--|
|
| +S  S S S S S S S S S S S S S S S
|------------------------------------|
|------------------------------------|
|------------------------------------|
|-(7)-7-7-7-7-7-7-7-7-7-7-7-7-7-7----|
|-(5)-5-5-5-5-5-5-5-5-5-5-5-5-5-5-4--|
|---------------------------------2--|


  F#5                 N.C.                              D5
 2/4                 4/4
  +S  S S S S S S S   S S S S +S  S S S +S  S S S S S S S
|-------------------|-------------------------------------|
|-------------------|-------------------------------------|
|-------------------|-------------------------------------|
|-------------------|-----2-4-(4)-2---0-(0)---------6---7-|
|-(4)-4-4-4-4-4-4-4-|-0-4-----------4-------2---4-------5-|
|-(2)-2-2-2-2-2-2-2-|-------------------------------------|
|
| +S  S S S S S S S   S S S S +S  S S S +S  S S S S S S S
|-------------------|-------------------------------------|
|-------------------|-------------------------------------|
|-------------------|-----1-2-(2)-1-----------------4-----|
|-------------------|---2-----------2-4-(4)-0---2-------7-|
|-(4)-4-4-4-4-4-4-4-|-4---------------------------------5-|
|-(2)-2-2-2-2-2-2-2-|-------------------------------------|


  D5                              F#5                  B5
                                                   Gtrs I, II
  +S  S S S S S S S S S S S S S S S   +H.      +S  S S S
|-----------------------------------|--------------------||
|-----------------------------------|--------------------||
|-----------------------------------|--------------------||
|-(7)-7-7-7-7-7-7-7-7-7-7-7-7-7-7---|--------------------||
|-(5)-5-5-5-5-5-5-5-5-5-5-5-5-5-5-4-|-(4)------(4)-x-x-9-||
|---------------------------------2-|-(2)------(2)-x-x-7-||


   Breakdown
    B5                                                                C5
    +S  S S S S S S S S S S S S S S S   S S S S S S S S S S S S S S S  S
||------------------------------------|----------------------------------|
||o-----------------------------------|----------------------------------|
||------------------------------------|----------------------------------|
||------------------------------------|----------------------------------|
||o-(9)-9-9-9-9-9-9-9-9-9-9-9-9-9-9-9-|-9-9-9-9-9-9-9-9-9-9-9-9-9-9-9-12-|
||--(7)-7-7-7-7-7-7-7-7-7-7-7-7-7-7-7-|-7-7-7-7-7-7-7-7-7-7-7-7-7-7-7-10-|


  C5
   +S   S  S  S  S  S  S  S  S  S  S  S  S  S  S  S
|---------------------------------------------------|
|---------------------------------------------------|
|---------------------------------------------------|
|---------------------------------------------------|
|-(12)-12-12-12-12-12-12-12-12-12-12-12-12-12-12-12-|
|-(10)-10-10-10-10-10-10-10-10-10-10-10-10-10-10-10-|


  A/C#                A5        AsusB5
   S  S S S  S  S S S S S S S S S S S
|---------------------------------------||
|--------------------------------------o||
|---------------------------------------||
|-11-11-x-x-11-11-x-x-----------9-x-----||
|-12-12-x-x-12-12-x-x-7-x-x-7-x-7-x-9--o||
|--9--9-x-x--9--9-x-x-5-x-x-5-x-5-x-7---||


  B5                                                                C5
  +S  S S S S S S S S S S S S S S S   S S S S S S S S S S S S S S S  S
|-----------------------------------|-----------------------------------|
|-----------------------------------|-----------------------------------|
|-----------------------------------|-----------------------------------|
|-----------------------------------|-----------------------------------|
|-(9)-9-9-9-9-9-9-9-9-9-9-9-9-9-9-9-|-9-9-9-9-9-9-9-9-9-9-9-9-9-9-9-12--|
|-(7)-7-7-7-7-7-7-7-7-7-7-7-7-7-7-7-|-7-7-7-7-7-7-7-7-7-7-7-7-7-7-7-10--|


  C5
   +S   S  S  S  S  S  S  S  S  S  S  S  S  S  S  S
|---------------------------------------------------|
|---------------------------------------------------|
|---------------------------------------------------|
|---------------------------------------------------|
|-(12)-12-12-12-12-12-12-12-12-12-12-12-12-12-12-12-|
|-(10)-10-10-10-10-10-10-10-10-10-10-10-10-10-10-10-|


  A/C#                A5        AsusA5
   S  S S S  S  S S S S S S S S S S S
|--------------------------------------||
|--------------------------------------||
|--------------------------------------||
|-11-11-x-x-11-11-x-x-----------9-x----||
|-12-12-x-x-12-12-x-x-7-x-x-7-x-7-x-7--||
|--9--9-x-x--9--9-x-x-5-x-x-5-x-5-x-5--||


   Bridge
    A5                                 A5/Ab
    +S  S S S S S S S  S S S S  S  S S  S
||----------------------------------------|
||o---------------------------------------|
||----------------------------------------|
||----------------------------------------|
||o-(7)-7-7-7-7-7-7-7--7-7-7-7--7--7-7--7-|
||--(5)-5-5-5-5-5-5-5--5-5-5-5--5--5-5--4-|
|
|                     Gtr III
|    H                 Q        E.      S
||----------------------------------------|
||o---------------------------------------|
||-----------------------------13------14-|
||--------------------14------------------|
||o---------------------------------------|
||----------------------------------------|


                                      F#5
   +S  S S S S S S S  S S S S  S  S S  S
|----------------------------------------|
|----------------------------------------|
|----------------------------------------|
|----------------------------------------|
|--(7)-7-7-7-7-7-7-7--7-7-7-7--7--7-7--4-|
|--(4)-4-4-4-4-4-4-4--4-4-4-4--4--4-4--2-|
|
|  +H                 Q        E.      S
|----------------------------------------|
|----------------------------------------|
|-(14)------------------------13------14-|
|--------------------14------------------|
|----------------------------------------|
|----------------------------------------|


  F#5                                          E5
   +S  S S  S  S  S  S  S  S  S  S  S  S  S  S  S
|-------------------------------------------------|
|-------------------------------------------------|
|-------------------------------------------------|
|-------------------------------------------------|
|--(4)-4-4--4--4--4--4--4--4--4--4--4--4--4--4--2-|
|--(2)-2-2--2--2--2--2--2--2--2--2--2--2--2--2--0-|
|
|           PM-------------------------------------
|  +E.      S  S  S  S  S  S  S  S  S  S  S  S  S
|-------------------------------------------------|
|-------------14-------14-------14-------14-------|
|-(14)-----------16-------16-------16-------16----|
|----------14-------14-------14-------14-------14-|
|-------------------------------------------------|
|-------------------------------------------------|


                                                D5
  +S   S  S  S  S  S  S  S  S  S  S  S  S  S  S  S
|---------------------------------------------------|
|---------------------------------------------------|
|---------------------------------------------------|
|------------------------------------------------7--|
|-(2)--2--2--2--2--2--2--2--2--2--2--2--2--2--2--5--|
|-(0)--0--0--0--0--0--0--0--0--0--0--0--0--0--0-----|
|
|-----------------------------------------|
|  S   S  S  S  S  S  S  S  S  S  S  S  S  S  S  S
|---------------------------------------------------|
|-17--------17-------17-------17-------17-----------|
|-----16-------16-------16-------16-------16--------|
|--------14-------14-------14-------14-------14-14--|
|---------------------------------------------------|
|---------------------------------------------------|


  D5
  +S   S  S  S  S  S  S  S  S  S  S  S  S  S  S  S
|--------------------------------------------------|
|--------------------------------------------------|
|--------------------------------------------------|
|-(7)--7--7--7--7--7--7--7--7--7--7--7--7--7--7--7-|
|-(5)--5--5--5--5--5--5--5--5--5--5--5--5--5--5--5-|
|--------------------------------------------------|
|
|  S   S  S  S  S  S  S  S  S  S  S  S  S  S  S  S
|--------------------------------------------------|
|--------14-15-17-14-15-17-14-15-17-14-15-17-14-15-|
|-----16-------------------------------------------|
|--------------------------------------------------|
|--------------------------------------------------|
|--------------------------------------------------|


                          N.C.                 A5
   S  S  S  S  S  S  S  S  S  S  S  S  S  S  S  S
|---------------------------------------------------||
|--------------------------------------------------o||
|---------------------------------------------------||
|--7--7--7--7--7--7--7--7--7------------------------||
|--5--5--5--5--5--5--5--5--5--5--4-----5--4-----7--o||
|-----------------------------------5--------5--5---||
|
|  S  S  S  S  S  S  S  S  S  S  S  S  S  S  S  S
|---------------------------------------------------||
|-17-14-15-17-14-15-17-14-15-17-14-15-17----14-----o||
|----------------------------------------16----14---||
|---------------------------------------------------||
|--------------------------------------------------o||
|---------------------------------------------------||


   Outro
    A5                                          A5/Ab
     +S  S S S S S S S  S  S  S  S   S   S   S   S
||-------------------------------------------------|
||o------------------------------------------------|
||-------------------------------------------------|
||-------------------------------------------------|
||o--(7)-7-7-7-7-7-7-7--7--7--7--7---7---7---7---7-|
||---(5)-5-5-5-5-5-5-5--5--5--5--5---5---5---5---4-|
|
|    +H                 S  S  S  S  +S   S  +S   S
||-------------------------------------------------|
||o--------------------17p14----17-(17)------------|
||--(14)---------------------14---------16-(16)----|
||----------------------------------------------14-|
||o------------------------------------------------|
||-------------------------------------------------|


                                              F#5
   +S  S S S S S S S  S  S  S  S   S   S   S   S
|------------------------------------------------|
|------------------------------------------------|
|------------------------------------------------|
|------------------------------------------------|
|--(7)-7-7-7-7-7-7-7--7--7--7--7---7---7---7---4-|
|--(4)-4-4-4-4-4-4-4--4--4--4--4---4---4---4---2-|
|
|  +H                 S  S  S  S  +S   S  +S   S
|------------------------------------------------|
|--------------------17p14----17-(17)------------|
|--------------------------14---------16-(16)----|
|-(14)----------------------------------------16-|
|------------------------------------------------|
|------------------------------------------------|


  F#5                                         E5
   +S  S S S S S S S  S  S  S  S   S   S   S   S
|------------------------------------------------|
|------------------------------------------------|
|------------------------------------------------|
|------------------------------------------------|
|--(4)-4-4-4-4-4-4-4--4--4--4--4---4---4---4---2-|
|--(2)-2-2-2-2-2-2-2--2--2--2--2---2---2---2---0-|
|
|  +H                 S  S  S  S  +S   S  +S   S
|------------------------------------------------|
|--------------------17p14----17-(17)------------|
|--------------------------14---------16-(16)----|
|-(16)----------------------------------------14-|
|------------------------------------------------|
|------------------------------------------------|


                                          D5
   +S  S  S S  S S  S S  S S  S S  S S  S S
|--------------------------------------------|
|--------------------------------------------|
|--------------------------------------------|
|-----------------------------------------7--|
|--(2)-2--2-2--2-2--2-2--2-2--2-2--2-2--2-5--|
|--(0)-0--0-0--0-0--0-0--0-0--0-0--0-0--0----|
|
|  +E     E    E    E    E    E    E    E
|--------------------------------------------|
|-------------14--------17--------14---------|
|--------16--------16--------16--------16----|
|-(14)---------------------------------------|
|--------------------------------------------|
|--------------------------------------------|


  D5
  +S   S  S  S  S  S  S  S  S  S  S  S  S  S  S  S
|--------------------------------------------------|
|--------------------------------------------------|
|--------------------------------------------------|
|-(7)--7--7--7--7--7--7--7--7--7--7--7--7--7--7--7-|
|-(5)--5--5--5--5--5--5--5--5--5--5--5--5--5--5--5-|
|--------------------------------------------------|
|
|  S   S  S  S  S  S  S  S  S  S  S  S  S  S  S  S
|--------------------------------------------------|
|--------14-15-17-14-15-17-14-15-17-14-15-17-14-15-|
|-----16-------------------------------------------|
|--------------------------------------------------|
|--------------------------------------------------|
|--------------------------------------------------|


                          N.C.                 A5
   S  S  S  S  S  S  S  S  S  S  S  S  S  S  S  S   3x
|---------------------------------------------------||
|--------------------------------------------------o||
|---------------------------------------------------||
|--7--7--7--7--7--7--7--7--7------------------------||
|--5--5--5--5--5--5--5--5--5--5--4-----5--4-----7--o||
|-----------------------------------5--------5--5---||
|
|  S  S  S  S  S  S  S  S  S  S  S  S  S  S  S  S   3x
|---------------------------------------------------||
|-17-14-15-17-14-15-17-14-15-17-14-15-17----14-----o||
|----------------------------------------16----14---||
|---------------------------------------------------||
|--------------------------------------------------o||
|---------------------------------------------------||


Duration Legend
---------------
W - whole; H - half; Q - quarter; E - 8th; S - 16th; T - 32nd; X - 64th; a - acciaccatura
+ - note tied to previous; . - note dotted; .. - note double dotted
Uncapitalized letters represent notes that are staccato (1/2 duration)
Irregular groupings are notated above the duration line
Duration letters will always appear directly above the note/fret number it represents the
duration for.  Duration letters with no fret number below them represent rests.  Multi-
bar rests are notated in the form Wxn, where n is the number of bars to rest for.  Low
melody durations appear below the staff

Tablature Legend
----------------
 h   - hammer-on
 p   - pull-off
 b   - bend
 pb  - pre-bend
 r   - bend release (if no number after the r, then release immediately)
 /  - slide into or out of (from/to nowhere)
 s   - legato slide
 S   - shift slide
  - natural harmonic
[n]  - artificial harmonic
n(n) - tapped harmonic
 ~   - vibrato
 tr  - trill
 T   - tap
 TP  - trem. picking
 PM  - palm muting
n/  - tremolo bar dip; n = amount to dip
 n  - tremolo bar down
 n/  - tremolo bar up
/n  - tremolo bar inverted dip
 =   - hold bend; also acts as connecting device for hammers/pulls
   - volume swell (louder/softer)
 x   - on rhythm slash represents muted slash
 o   - on rhythm slash represents single note slash

Misc Legend
-----------
 |  - bar
||  - double bar
||o - repeat start
o|| - repeat end
*|  - double bar (ending)
 :  - bar (freetime)
 $  - Segno
 amp;  - Coda
Tempo markers -  = BPM(8/16=s8/s16), where s8 = swing 8ths, s16 = swing 16ths


Добавлено: 09.09.2013
Другие материалы по этой песне:
  • Аккорды и текст

Страница создана 09.09.2013
http://primanota.ru/coheed-and-cambria/three-evils-embodied-in-love-and-shadow-1-chords.htm
Привет, Гость.
Предлагаем пройти революционный курс по гитаре.
Подарок от PrimaNota.Ru, забирай!