PrimaNota.ru - самый крупный в мире бесплатный архив песенных текстов, аккордов, табулатур и нот


Coheed & Cambria - The Willing Well IV The Final Cut - текст песни, таба, видео

Регистрация Запомнить меня
Войти через:  Facebook Google Twitter Vk Yandex Mail.ru

Coheed & Cambria - The Willing Well IV The Final Cut - текст песни, таба, видео

Печатать
Просмотров: 128
Авторы музыки: Coheed and Cambria
Авторы текста: Claudio Sanchez
Coheed and Cambria: The Willing Well IV: The Final Cut
Guitar Solo - Claudio's part

the first part of the solo is available on the other tab posted on Ultimate Guitar,
and i borrowed some of that tab for Claudio's solo as well, but seeing as it wasn't
finished, i took the liberty to try, knowing how helpful an accurate tab is. This
is my first tab so please review it

Enjoy,

The Swimming Guitarist.

---------------------------------------------------------------------------|
-------17-15~--12\---------------------------------------------------------|
14-16----------12\-----12-14--14h16p14----12--14-14b16r14~12----12h14p12---|
------------------12h14----------------14--------------------14---------14-|
---------------------------------------------------------------------------|
---------------------------------------------------------------------------|


|-------------------------------------|
|-------------------------------------|
|-------7-9-7---7---------------------|
|-------------9---9-7-9-7-------7-(7)-|
|-------------------------10-10-------|
|-------------------------------------|
|

|------------------------|-----------------7------------------------------|
|------------------------|---------------8---8--7-------------------------|
|------------------------|-----------7h9-------9-9------------------------|
|--7s9==-----------------|------------------------9--9-10s12-10-9---------|
|-----------10-7~-10\----|--------10------------------------------10------|
|------------------------|------------------------------------------------|
|
|  ~~~~~~~~~~~~~~~~~~~~~~~~~~~~~''

|----------------|--------------|
|----------------|--------------|
|-12-14-11-------|--------------|
|-12-12-12-------|--------------|
|----------------|--------------|
|----------------|--------------|
|
|------------------------------|--------|
|--12----------17b19r17---15h17|--------|
|------------------------------|-16-----|
|------------------------------|--------|
|------------------------------|--------|
|------------------------------|--------|
|
|17b19--17b19---|15-17-----15------15------------------------------------------|
|---------------|-------17—---15h17----15-17-19-15-----------------------------|
|---------------|----------------------------------16-(16)17b19r17b19r17p16----|
|---------------|--------------------------------------------------------------|
|---------------|--------------------------------------------------------------|
|---------------|--------------------------------------------------------------|
|
|  ~~~~~~~~~~~~~~~~~~~~~
|  H.               +H.
|-------------------------|------------------------------------------|
|-------------------------|------------------------------------------|
|--14-16-17-16------------|------------------------------------------|
|-------------------------|------------------------------------------|
|-------------------------|------------------------------------------|
|-------------------------|------------------------------------------|

Eb|-------------------------------------------------------------------||
Bb|-------------------------------------------------------------------||
Gb|-------12-14h16p14p12--—12-14-12-----------------------------------||
Db|-12h14----------------14---------14-12-10-9~--9-7------------------||
Ab|--------------------------------------------------10-9-7-7s5~s7----||
Eb|-------------------------------------------------------------------||

|-3--| |-3-|      |-3-| |-3-|    |-3--|  |--3--| |-3-|     |-3-|
  S  S S S S S E E  S S S S S S    S  S S  S  S  S S S S Q   S S S
|---------------------------------------|----------------------------------|
|--------------8------------------------|----------------------------------|
|-9--9-9-9-7-9-9-9\------11-11-11-7-7-7-|--9--9-9------------------------7-|
|---------------------------------------|---------10-10-10-9-9-9-7\--------|
|---------------------------------------|----------------------------------|
|---------------------------------------|----------------------------------|
|
  |-3--| |-3-|      |-3-| |-3-|    |-3--|  |--3--| |-3-|
  S  S S S S S E E  S S S S S S    S  S S  S  S  S S S S Q   E
|-------------------------------|------------------------------|
|--------------8----7-7-7-------|------------------------------|
|-9--9-9-9-7-9-9-9\-------7-7-7-|--9--9-9----------------------|
|-------------------------------|---------10-10-10-9-9-9-7\----|
|-------------------------------|------------------------------|
|-------------------------------|------------------------------|
|
| ~~~~~~~~~~~~~~~~~~~~~~~~~~~~~~~~~~~~
|--------------------------------------------------|
|15qb17~15-13-12-12h13p12---15b17==17r15—12-13----—|
|-----------------------------------------------14-|
|--------------------------------------------------|
|--------------------------------------------------|
|--------------------------------------------------|

|----------------------------15h17b19(19)(19)------|
|-----—15qb17==qr15h17b19r17-----------------------|
|--------------------------------------------------|
|--------------------------------------------------|
|--------------------------------------------------|
|--------------------------------------------------|

|  ~~~~~~~~~~~~~~~~~~~~~~~~~~~~~~~~~~~~~~~~~~~~~~~~~~~~~~~~~~~

  Faster E.=87

|----10-12----------10----|------------------|
|-12-------12-12-10----10-|------------12----|
|-------------------------|-12---12-11----11-|
|-------------------------|------------------|
|-------------------------|------------------|
|-------------------------|------------------|
|

|----12-------10----|-------------------|
|-12----12-10----10-|----12-------12----|
|-------------------|-12----12-11----11-|
|-------------------|-------------------|
|-------------------|-------------------|
|-------------------|-------------------|

|-----------------------------|---------------------------------|
|-----------------------------|---------------------------------|
|-9-------(9)------/11-(11)-9-|---------------------------------|
|-----------------------------|-12-------(12)------(12)-(12)-12-|
|-----------------------------|---------------------------------|
|-----------------------------|---------------------------------|
|

|----------------------------------|---------------||
|----------------------------------|---------------||
|----------------------------------|---------------||
|-10------(10)-9-(9)-9-------9---9-|-(9)-----------||
|----------------------------------|---------------||
|----------------------------------|---------------||
|

 Outro
|-------------|----------------------|-----------------------|
|-------------|----------------------|-----------------------|
|-------------|---------0------------|----------0------------|
|----9-9------|-------9-------9------|--------9-------9------|
|--------7----|-----7-------------7--|------7-------------7--|
|-0-----------|--0-------------------|---0-------------------|
|

|-----------------------|------------------------|------------------------|
|-----------------------|------------------------|------------------------|
|----------0------------|--------0--4--4b5r(4)-0-|--------0--4--4b5r(4)-0-|
|--------9-------9------|------5-----------------|------5-----------------|
|------7----------------|---3--------------------|---3--------------------|
|---0----------------7--|------------------------|------------------------|
|
|   ~~~~~~~~~~~~~~~
|---------------------------|--------------------|
|---------------------------|--------------------|
|--------0--4-(4)b5==(4)s22-|-(22)-------(22)r---|
|------5--------------------|--------------------|
|---3-----------------------|--------------------|
|---------------------------|--------------------|
|
Tab Legend
----------------
 h   - hammer-on
 p   - pull-off
 b   - bend
 qb  - quick/immediate bend
 r   - bend release
 qr– quick/immediate bend release
 /\  - slide into or out of (from/to "nowhere")
 s   - slide
(3)  – hold note
 ~   - vibrato
 =   - hold bend; also acts as connecting device for hammers/pulls
Добавлено: 19.07.2012
Другие материалы по этой песне:

Страница создана 02.03.2012
http://primanota.ru/coheed-and-cambria/the-willing-well-iv-the-final-cut-chords.htm
Привет, Гость.
Предлагаем пройти революционный курс по гитаре.
Подарок от PrimaNota.Ru, забирай!