PrimaNota.ru - самый крупный в мире бесплатный архив песенных текстов, аккордов, табулатур и нот


Coheed & Cambria - The Willing Well Iii Apollo I The Telling Truth - таба, бас-таба, видео

Регистрация Запомнить меня
Войти через:  Facebook Google Twitter Vk Yandex Mail.ru

Coheed & Cambria - The Willing Well Iii Apollo I The Telling Truth - таба, бас-таба, видео

Печатать
Просмотров: 165
Уроки эстрадного вокала в Санкт-Петербурге
Gtr I (Eb Ab Db Gb Bb Eb) - 'dist.'
Gtr II (Eb Ab Db Gb Bb Eb) - 'slight dist.'
Gtr III (Eb Ab Db Gb Bb Eb) - 'slight dist.'
Gtr IV (Eb Ab Db Gb Bb Eb) - 'dist.'
Gtr V (Eb Ab Db Gb Bb Eb) - 'dist.'




 Gtr I
            ~~~~~~~~ PM-------------------------------|    ~~~
  
|-------------|------------------------|---------------------|
|-------------|------------------------|---------------------|
|-------------|------------------------|---------------------|
|-------------|-----11----11---11-9-11-|---11---11----11-----|
|-----------9-|-(9)----10----9---------|-9----9-----9------9-|
|-------------|------------------------|---------------------|
|
|                   Gtr II
|                                           PM|
| 
|-------------|------------------------|---------------------|
|-------------|------------------------|---------------------|
|-------------|------------------------|---------------------|
|-------------|--------11-12----7-9----|--------12-11--------|
|-------------|------9---------------7-|------0--------------|
|-------------|------------------------|----2----------------|


               (Esus4)     (F#m)            (C#m/F#)
 ~~~~~ PM-----------------------|     PM
  +E   E  E  E E  E E  E   E  E E  E  E E E E
|------------------------|---------------------|
|------------------------|------------2--------|
|------------------------|---------------------|
|-----11----11---11-9-11-|---11----------------|
|-(9)----10----9---------|-9----9--0--------2--|
|------------------------|--------------2------|
|
|                             PM|
|  E   E  E  E E  E E  E   E  E E  E  H
|------------------------|---------------------|
|------------------------|---------------------|
|------------------------|---------------------|
|--------11-12----7-9----|--------12-11--------|
|------9---------------7-|------0--------------|
|------------------------|----2----------------|


            (Esus4)   (Bsus4)
                  PM    PM------------|
  +E  E E E E E E E   E E E  E  E E E E
|-------------------|-------------------|
|-------------------|-------------------|
|---------0---------|-----------0-------|
|-----4-----4-------|-----4-------4-----|
|-(2)---2-----2---2-|---2----2------2-2-|
|-------------------|-------------------|
|
|                       PM|
|  E  E E E E E E E   E E E  E  H
|-------------------|-------------------|
|---------5---------|-------------------|
|-------6-----------|-------------------|
|-----4-------7-9---|-------12-11-------|
|-----------------7-|-----0-------------|
|-------------------|---2---------------|
|
|                       Gtr III
|  W                  E E E  E  H
|-------------------|-----------0-------|
|-------------------|--------7----------|
|-------------------|-----4-------------|
|-------------------|---0---------------|
|-------------------|-------------------|
|-------------------|-------------------|


  (C#m/F#)  (Esus4)   (Bsus4)         (F#5)
      PM----------|                   ~
   E  E E E E E E E   E E E  E  E E E E
|-------------------|--------------------|
|-------------------|--------------------|
|-----------0-------|--------0-----------|
|-------4-----4-----|-----4-----4--------|
|-----2---2-----2-2-|---2---------2---9--|
|-------------------|--------------------|
|
|                       PM|
|  E  E E E E E E E   E E E  E  H
|-------------------|--------------------|
|---------5---------|--------------------|
|-------6-----------|--------------------|
|-----4-------7-9---|-------12-11--------|
|-----------------7-|-----0--------------|
|-------------------|---2----------------|
|
|  >
| +W                  E E E  E  H
|-(0)---------------|-----------0--------|
|-------------------|--------7-----------|
|-------------------|-----4--------------|
|-------------------|---0----------------|
|-------------------|--------------------|
|-------------------|--------------------|


               (Esus4)     (F#m)             (F#5)
   ~~~ PM-------------------------------|    ~~~
  +E   E  E  E E  E E  E   E  E E  E  E  E E E
|------------------------|---------------------|
|------------------------|---------------------|
|------------------------|---------------------|
|-----11----11---11-9-11-|---11---11----11-----|
|-(9)----10----9---------|-9----9-----9------9-|
|------------------------|---------------------|
|
|                             PM|
|  E   E  E  E E  E E  E   E  E E  E  H
|------------------------|---------------------|
|------------------------|---------------------|
|------------------------|---------------------|
|--------11-12----7-9----|--------12-11--------|
|------9---------------7-|------0--------------|
|------------------------|----2----------------|
|
|  >
| +W                       W
|-(0)--------------------|---------------------|
|------------------------|---------------------|
|------------------------|---------------------|
|------------------------|---------------------|
|------------------------|---------------------|
|------------------------|---------------------|


               (Esus4)     (F#m)            (C#m/F#)
 ~~~~~ PM-----------------------|     PM
  +E   E  E  E E  E E  E   E  E E  E  E E E E
|------------------------|---------------------|
|------------------------|------------2--------|
|------------------------|---------------------|
|-----11----11---11-9-11-|---11----------------|
|-(9)----10----9---------|-9----9--0--------2--|
|------------------------|--------------2------|
|
|                             PM|
|  E   E  E  E E  E E  E   E  E E  E  H
|------------------------|---------------------|
|------------------------|---------------------|
|------------------------|---------------------|
|--------11-12----7-9----|--------12-11--------|
|------9---------------7-|------0--------------|
|------------------------|----2----------------|
|
|  W                       W
|------------------------|---------------------|
|------------------------|---------------------|
|------------------------|---------------------|
|------------------------|---------------------|
|------------------------|---------------------|
|------------------------|---------------------|


            (Esus4)   (Bsus4)
                  PM    PM------------|
  +E  E E E E E E E   E E E  E  E E E E
|-------------------|-------------------|
|-------------------|-------------------|
|---------0---------|-----------0-------|
|-----4-----4-------|-----4-------4-----|
|-(2)---2-----2---2-|---2----2------2-2-|
|-------------------|-------------------|
|
|                       PM|
|  E  E E E E E E E   E E E  E  H
|-------------------|-------------------|
|---------5---------|-------------------|
|-------6-----------|-------------------|
|-----4-------7-9---|-------12-11-------|
|-----------------7-|-----0-------------|
|-------------------|---2---------------|
|
|  W                  E E E  E  H
|-------------------|-----------0-------|
|-------------------|--------7----------|
|-------------------|-----4-------------|
|-------------------|---0---------------|
|-------------------|-------------------|
|-------------------|-------------------|


  (C#m/F#)  (Esus4)   (Bsus4)         (F#5)
      PM----------|                   ~
   E  E E E E E E E   E E E  E  E E E E
|-------------------|--------------------|
|-------------------|--------------------|
|-----------0-------|--------0-----------|
|-------4-----4-----|-----4-----4--------|
|-----2---2-----2-2-|---2---------2---9--|
|-------------------|--------------------|
|
|                       PM|
|  E  E E E E E E E   E E E  E  H
|-------------------|--------------------|
|---------5---------|--------------------|
|-------6-----------|--------------------|
|-----4-------7-9---|-------12-11--------|
|-----------------7-|-----0--------------|
|-------------------|---2----------------|
|
|  >
| +W                  E E E  E  E E Q
|-(0)---------------|-----------0--------|
|-------------------|--------7-----------|
|-------------------|-----4-------7-6----|
|-------------------|---0----------------|
|-------------------|--------------------|
|-------------------|--------------------|


               (Esus4)     (F#m)             (F#5)
   ~~~ PM-------------------------------|    ~~~
  +E   E  E  E E  E E  E   E  E E  E  E  E E E
|------------------------|---------------------|
|------------------------|---------------------|
|------------------------|---------------------|
|-----11----11---11-9-11-|---11---11----11-----|
|-(9)----10----9---------|-9----9-----9------9-|
|------------------------|---------------------|
|
|                             PM|
|  E   E  E  E E  E E  E   E  E E  E  H
|------------------------|---------------------|
|------------------------|---------------------|
|------------------------|---------------------|
|--------11-12----7-9----|--------12-11--------|
|------9---------------7-|------0--------------|
|------------------------|----2----------------|
|
|  >
| +W                       W
|------------------------|---------------------|
|------------------------|---------------------|
|-(6)--------------------|---------------------|
|------------------------|---------------------|
|------------------------|---------------------|
|------------------------|---------------------|


               (Esus4)     (F#m)            (C#m/F#)
 ~~~~~ PM-----------------------|     PM
  +E   E  E  E E  E E  E   E  E E  E  E E E E
|------------------------|---------------------|
|------------------------|------------2--------|
|------------------------|---------------------|
|-----11----11---11-9-11-|---11----------------|
|-(9)----10----9---------|-9----9--0--------2--|
|------------------------|--------------2------|
|
|                             PM|
|  E   E  E  E E  E E  E   E  E E  E  H
|------------------------|---------------------|
|------------------------|---------------------|
|------------------------|---------------------|
|--------11-12----7-9----|--------12-11--------|
|------9---------------7-|------0--------------|
|------------------------|----2----------------|
|
|  W                       W
|------------------------|---------------------|
|------------------------|---------------------|
|------------------------|---------------------|
|------------------------|---------------------|
|------------------------|---------------------|
|------------------------|---------------------|


            (Esus4)   (Bsus4)
                  PM    PM------------|
  +E  E E E E E E E   E E E  E  E E E E
|-------------------|-------------------|
|-------------------|-------------------|
|---------0---------|-----------0-------|
|-----4-----4-------|-----4-------4-----|
|-(2)---2-----2---2-|---2----2------2-2-|
|-------------------|-------------------|
|
|                       PM|
|  E  E E E E E E E   E E E  E  H
|-------------------|-------------------|
|---------5---------|-------------------|
|-------6-----------|-------------------|
|-----4-------7-9---|-------12-11-------|
|-----------------7-|-----0-------------|
|-------------------|---2---------------|
|
|  W                  E E E  E  H
|-------------------|-----------0-------|
|-------------------|--------7----------|
|-------------------|-----4-------------|
|-------------------|---0---------------|
|-------------------|-------------------|
|-------------------|-------------------|


  (C#m/F#)  (Esus4)   (Bsus4)             (F#5)
      PM----------|                       ~
   E  E E E E E E E   E E E  E  E E   E   E
|-------------------|------------------------|
|-------------------|------------------------|
|-----------0-------|--------0---------------|
|-------4-----4-----|-----4-----4------------|
|-----2---2-----2-2-|---2---------2-------9--|
|-------------------|------------------------|
|
|                       PM|
|  E  E E E E E E E   E E E  E  Q    +Q
|-------------------|------------------------|
|---------5---------|------------------------|
|-------6-----------|------------------------|
|-----4-------7-9---|-------12-11---(11)\----|
|-----------------7-|-----0------------------|
|-------------------|---2--------------------|
|
|  >
| +W                  E E E  E  H
|-(0)---------------|-----------0------------|
|-------------------|--------7---------------|
|-------------------|-----4------------------|
|-------------------|---0--------------------|
|-------------------|------------------------|
|-------------------|------------------------|


               (Esus4)     (F#m)                  (F#5)
   ~~~ PM----------------------------------|      ~~~
  +E   E  E  E E  E E  E   E  E E  E  E      E  E E
|------------------------|--------------------------|
|------------------------|--------------------------|
|------------------------|--------------------------|
|-----11----11---11-9-11-|---11---11--------11------|
|-(9)----10----9---------|-9----9-----9-----------9-|
|------------------------|--------------------------|
|
|                             PM|
|  E   E  E  E E  E E  E   E  E E  E  E     +E  Q
|------------------------|--------------------------|
|------------------------|-----------14b15r(14)-----|
|------------------------|--------------------------|
|--------11-12----7-9----|--------12----------------|
|------9---------------7-|------0-------------------|
|------------------------|----2---------------------|
|
|  >
| +W                       W
|-(0)--------------------|--------------------------|
|------------------------|--------------------------|
|------------------------|--------------------------|
|------------------------|--------------------------|
|------------------------|--------------------------|
|------------------------|--------------------------|


               (Esus4)     (F#m)                  (C#m/F#)
 ~~~~~ PM-----------------------|     PM
  +E   E  E  E E  E E  E   E  E E  E  E    E   E   E
|------------------------|----------------------------|
|------------------------|------------2---------------|
|------------------------|----------------------------|
|-----11----11---11-9-11-|---11-----------------------|
|-(9)----10----9---------|-9----9--0---------------2--|
|------------------------|-----------------2----------|
|
|                             PM|
|  E   E  E  E E  E E  E   E  E E  E  Q       +E   E
|------------------------|----------------------------|
|------------------------|-----------14b15r==(14)-10--|
|------------------------|----------------------------|
|--------11-12----7-9----|--------12------------------|
|------9---------------7-|------0---------------------|
|------------------------|----2-----------------------|
|
|  W                       W
|------------------------|----------------------------|
|------------------------|----------------------------|
|------------------------|----------------------------|
|------------------------|----------------------------|
|------------------------|----------------------------|
|------------------------|----------------------------|


             (Esus4)   (Bsus4)
                   PM    PM------------|
   +E  E E E E E E E   E E E  E  E E E E
|--------------------|-------------------|
|--------------------|-------------------|
|----------0---------|-----------0-------|
|------4-----4-------|-----4-------4-----|
|--(2)---2-----2---2-|---2----2------2-2-|
|--------------------|-------------------|
|
|                        PM|
|  +E  E E E E E E E   E E E  E  H
|--------------------|-------------------|
|-(10)-----5---------|-------------------|
|--------6-----------|-------------------|
|------4-------7-9---|-------12-11-------|
|------------------7-|-----0-------------|
|--------------------|---2---------------|
|
|   W                  E E E  E  H
|--------------------|-----------0-------|
|--------------------|--------7----------|
|--------------------|-----4-------------|
|--------------------|---0---------------|
|--------------------|-------------------|
|--------------------|-------------------|


  (C#m/F#)  (Esus4)   (Bsus4)         (F#5)
      PM----------|                   ~
   E  E E E E E E E   E E E  E  E E E E
|-------------------|--------------------|
|-------------------|--------------------|
|-----------0-------|--------0-----------|
|-------4-----4-----|-----4-----4--------|
|-----2---2-----2-2-|---2---------2---9--|
|-------------------|--------------------|
|
|                       PM|
|  E  E E E E E E E   E E E  E  H
|-------------------|--------------------|
|---------5---------|--------------------|
|-------6-----------|--------------------|
|-----4-------7-9---|-------12-11--------|
|-----------------7-|-----0--------------|
|-------------------|---2----------------|
|
|  >
| +W                  E E E  E  H
|-(0)---------------|-----------0--------|
|-------------------|--------7-----------|
|-------------------|-----4--------------|
|-------------------|---0----------------|
|-------------------|--------------------|
|-------------------|--------------------|


               (Esus4)     (F#m)             (F#5)
   ~~~ PM-------------------------------|    ~~~
  +E   E  E  E E  E E  E   E  E E  E  E  E E E
|------------------------|---------------------|
|------------------------|---------------------|
|------------------------|---------------------|
|-----11----11---11-9-11-|---11---11----11-----|
|-(9)----10----9---------|-9----9-----9------9-|
|------------------------|---------------------|
|
|                             PM|
|  E   E  E  E E  E E  E   E  E E  E  H
|------------------------|---------------------|
|------------------------|---------------------|
|------------------------|---------------------|
|--------11-12----7-9----|--------12-11--------|
|------9---------------7-|------0--------------|
|------------------------|----2----------------|
|
|  >
| +W                       W
|-(0)--------------------|---------------------|
|------------------------|---------------------|
|------------------------|---------------------|
|------------------------|---------------------|
|------------------------|---------------------|
|------------------------|---------------------|


               (Esus4)     (F#m)            (C#m/F#)
 ~~~~~ PM-----------------------|     PM
  +E   E  E  E E  E E  E   E  E E  E  E E E E
|------------------------|---------------------|
|------------------------|------------2--------|
|------------------------|---------------------|
|-----11----11---11-9-11-|---11----------------|
|-(9)----10----9---------|-9----9--0--------2--|
|------------------------|--------------2------|
|
|                             PM|
|  E   E  E  E E  E E  E   E  E E  E  H
|------------------------|---------------------|
|------------------------|---------------------|
|------------------------|---------------------|
|--------11-12----7-9----|--------12-11--------|
|------9---------------7-|------0--------------|
|------------------------|----2----------------|
|
|  W                       W
|------------------------|---------------------|
|------------------------|---------------------|
|------------------------|---------------------|
|------------------------|---------------------|
|------------------------|---------------------|
|------------------------|---------------------|


            (Esus4)   (Bsus4)
                  PM    PM------------|
  +E  E E E E E E E   E E E  E  E E E E
|-------------------|-------------------|
|-------------------|-------------------|
|---------0---------|-----------0-------|
|-----4-----4-------|-----4-------4-----|
|-(2)---2-----2---2-|---2----2------2-2-|
|-------------------|-------------------|
|
|                       PM|
|  E  E E E E E E E   E E E  E  H
|-------------------|-------------------|
|---------5---------|-------------------|
|-------6-----------|-------------------|
|-----4-------7-9---|-------12-11-------|
|-----------------7-|-----0-------------|
|-------------------|---2---------------|
|
|  W                  E E E  E  H
|-------------------|-----------0-------|
|-------------------|--------7----------|
|-------------------|-----4-------------|
|-------------------|---0---------------|
|-------------------|-------------------|
|-------------------|-------------------|


  (C#m/F#)  (Esus4)   (Bsus4)
                                        Gtrs IV, V
      PM----------|                     ~
   E  E E E E E E E   E E  E  E  E E  E E
|-------------------|----------------------||
|-------------------|----------------------||
|-----------0-------|---------0------------||
|-------4-----4-----|------4-----4---------||
|-----2---2-----2-2-|---2----------2-------||
|-------------------|-------------------3--||
|
|  E  E E E E E E E   E E  E  E  E E  E E
|-------------------|----------------------||
|---------5---------|----------------------||
|-------6-----------|----------------------||
|-----4-------7-9---|--------12-11-9-------||
|-----------------7-|---9-12---------12----||
|-------------------|----------------------||
|
|  >
| +W                  E E  E  E  E E  E E
|-(0)---------------|------------0---------||
|-------------------|---------7------------||
|-------------------|------4-------7--6----||
|-------------------|---0------------------||
|-------------------|----------------------||
|-------------------|----------------------||


 Pre-Chorus
  $
  $$
  N.C.
   ~~~            ~~~~~~~~                                                 ~
  +E  E E E E E E E   +E  E E E E E E E   E E E E  E E E E   E E E E E E E E
|-------------------|-------------------|------------------|------------------|
|-------------------|-------------------|------------------|------------------|
|-------------------|---------7-6-0-----|------------------|------------------|
|-------5-4---------|-------9-------7-9-|------------------|------------------|
|-----5-----5-7---7-|-(7)-7-------------|-----9---10---9---|-0-0-7-0-7-9-7----|
|-(3)---------------|-------------------|---7---7----7---7-|---------------3--|


   ~~~            ~~~~~~~~
  +E  E E E E E E E   +E  E E E E E E E
|-------------------|-------------------|
|-------------------|-------------------|
|-------------------|---------7-6-0-----|
|-------5-4---------|-------9-------7-9-|
|-----5-----5-7---7-|-(7)-7-------------|
|-(3)---------------|-------------------|
|
|  W                   W
|-------------------|-------------------|
|-------------------|-------------------|
|-------------------|-------------------|
|-------------------|-------------------|
|-------------------|-------------------|
|-------------------|-------------------|


                                     G5
                                      ~~~~~~
  E E E E  E E E E   E   E E E E E E  E
|------------------|-------------------------||
|------------------|-------------------------||
|------------------|-------------------------||
|------------------|-------------------------||
|-----9---10---9---|-0---0-7-0-7-9-7---------||
|---7---7----7---7-|------------------3------||
|
|                                    Gtr I
| W                  H..              E
|------------------|-----------------12b14===||
|------------------|-------------------------||
|------------------|-------------------------||
|------------------|-------------------------||
|------------------|-------------------------||
|------------------|-------------------------||


 Chorus
                                                      A5   B5
    ~~~~~
   +E   E  E  S S  S  S S S E  S S    S  S S E.  E  E  E E E
|----------------------------------|-----------------------------|
|----------------------------------|-----------------------------|
|----------------------------------|-----------------------------|
|----------------------------------|-----------------------------|
|-------------x-x--x--x-x------x-x-|--x--x-x-----x--5--7---9-----|
|--(3)--0--3--x-x--x--x-x------x-x-|--x--x-x-----x--3--5---7-----|
|
|  +Q      E  E    Q.          E      Q.         E  E  E E E
|-(12)r---12-10--------------------|------------------12---------|
|-----------------12----------10---|-12---------10-12------------|
|----------------------------------|-----------------------9b11==|
|----------------------------------|-----------------------------|
|----------------------------------|-----------------------------|
|----------------------------------|-----------------------------|


          D5B5                          G5
          PM-----------------------|
  +Q    E E e. e. e   e. e. e e.   e.    E
|-------------------|----------------------------|
|-------------------|----------------------------|
|-------------------|----------------------------|
|-------------------|----------------------------|
|-(9)\----0-9--9--0-|-9--9--0-9----9-----5-------|
|-(7)\----0-7--7--0-|-7--7--0-7----7-----3-------|
|
| +Q    E E e. e. E   e. e. E E  E    E  E
|-------------------|-------------------12b14====|
|-------------------|----------------------------|
|-(9)r--9-7---------|------------7---------------|
|-----------9--9--7-|-9--9--7-9------------------|
|-------------------|----------------------------|
|-------------------|----------------------------|


                                                     H.=H
            F#5G5     F#5  G5     F#5G5 A5   B5              D5
          PM----------------------------|                    PM------|
   +Q     E  E  E  Q   E    E  Q   E  E  E E E       +Q    E E e. e. e
|------------------------|-------------------------|-------------------|
|------------------------|-------------------------|-------------------|
|------------------------|-------------------------|-------------------|
|------------------------|-------------------------|-------------------|
|--(5)-------5--5------5-|--5------5--5--7---9-----|-(9)\----0-9--9--0-|
|--(3)-------2--3------2-|--3------2--3--5---7-----|-(7)\----0-7--7--0-|
|
|  +Q     E  E  Q.     E    Q.     E  E  E E E       +Q    E E e. e. E
|-(12)r--12-10-----------|--------------12---------|-------------------|
|--------------12-----10-|-12-----10-12------------|-------------------|
|------------------------|-------------------9b11==|=(9)r--9-7---------|
|------------------------|-------------------------|-----------9--9--7-|
|------------------------|-------------------------|-------------------|
|------------------------|-------------------------|-------------------|


                SlowH=HQ=135
                            To Coda
                            To Coda
                A5                                  (F#5)
                                                    Gtr I
  PM---------|                                      ~
  e. e. e e. e. E   +W               +H..           E
|-----------------|----------------|------------------||
|-----------------|----------------|------------------||
|-----------------|----------------|------------------||
|-----------------|----------------|------------------||
|-9--0--9-9--0--7-|-(7)------------|-(7)------------9-||
|-7--0--7-7--0--5-|-(5)------------|-(5)--------------||
|
| e. e. E E. e. E   +Q.   S S H      +H.       +E   E
|-----------------|----------------|------------------||
|-----------------|----------------|------------------||
|------------7--7-|-(7)---9p7-6----|-(6)-------(6)\---||
|-9--9--7-9-------|----------------|------------------||
|-----------------|----------------|------------------||
|-----------------|----------------|------------------||


 Verse
  A Tempo Q=162
               (Esus4)     (F#m)             (F#5)
   ~~~ PM-------------------------------|    ~~~
  +E   E  E  E E  E E  E   E  E E  E  E  E E E
|------------------------|---------------------|
|------------------------|---------------------|
|------------------------|---------------------|
|-----11----11---11-9-11-|---11---11----11-----|
|-(9)----10----9---------|-9----9-----9------9-|
|------------------------|---------------------|
|
|     Gtr II
|                             PM|
|  E   E  E  E E  E E  E   E  E E  E  H
|------------------------|---------------------|
|------------------------|---------------------|
|------------------------|---------------------|
|--------11-12----7-9----|--------12-11--------|
|------9---------------7-|------0--------------|
|------------------------|----2----------------|


               (Esus4)     (F#m)            (C#m/F#)
 ~~~~~ PM-----------------------|     PM
  +E   E  E  E E  E E  E   E  E E  E  E E E E
|------------------------|---------------------|
|------------------------|------------2--------|
|------------------------|---------------------|
|-----11----11---11-9-11-|---11----------------|
|-(9)----10----9---------|-9----9--0--------2--|
|------------------------|--------------2------|
|
|                             PM|
|  E   E  E  E E  E E  E   E  E E  E  H
|------------------------|---------------------|
|------------------------|---------------------|
|------------------------|---------------------|
|--------11-12----7-9----|--------12-11--------|
|------9---------------7-|------0--------------|
|------------------------|----2----------------|


            (Esus4)   (Bsus4)
                  PM    PM------------|
  +E  E E E E E E E   E E E  E  E E E E
|-------------------|-------------------|
|-------------------|-------------------|
|---------0---------|-----------0-------|
|-----4-----4-------|-----4-------4-----|
|-(2)---2-----2---2-|---2----2------2-2-|
|-------------------|-------------------|
|
|                       PM|
|  E  E E E E E E E   E E E  E  H
|-------------------|-------------------|
|---------5---------|-------------------|
|-------6-----------|-------------------|
|-----4-------7-9---|-------12-11-------|
|-----------------7-|-----0-------------|
|-------------------|---2---------------|
|
|                       Gtr III
|  W                  E E E  E  H
|-------------------|-----------0-------|
|-------------------|--------7----------|
|-------------------|-----4-------------|
|-------------------|---0---------------|
|-------------------|-------------------|
|-------------------|-------------------|


  (C#m/F#)  (Esus4)   (Bsus4)         (F#5)
      PM----------|                   ~
   E  E E E E E E E   E E E  E  E E E E
|-------------------|--------------------|
|-------------------|--------------------|
|-----------0-------|--------0-----------|
|-------4-----4-----|-----4-----4--------|
|-----2---2-----2-2-|---2---------2---9--|
|-------------------|--------------------|
|
|                       PM|
|  E  E E E E E E E   E E E  E  H
|-------------------|--------------------|
|---------5---------|--------------------|
|-------6-----------|--------------------|
|-----4-------7-9---|-------12-11--------|
|-----------------7-|-----0--------------|
|-------------------|---2----------------|
|
|  >
| +W                  E E E  E  H
|-(0)---------------|-----------0--------|
|-------------------|--------7-----------|
|-------------------|-----4--------------|
|-------------------|---0----------------|
|-------------------|--------------------|
|-------------------|--------------------|


               (Esus4)     (F#m)             (F#5)
   ~~~ PM-------------------------------|    ~~~
  +E   E  E  E E  E E  E   E  E E  E  E  E E E
|------------------------|---------------------|
|------------------------|---------------------|
|------------------------|---------------------|
|-----11----11---11-9-11-|---11---11----11-----|
|-(9)----10----9---------|-9----9-----9------9-|
|------------------------|---------------------|
|
|                             PM|
|  E   E  E  E E  E E  E   E  E E  E  H
|------------------------|---------------------|
|------------------------|---------------------|
|------------------------|---------------------|
|--------11-12----7-9----|--------12-11--------|
|------9---------------7-|------0--------------|
|------------------------|----2----------------|
|
|  >
| +W                       W
|-(0)--------------------|---------------------|
|------------------------|---------------------|
|------------------------|---------------------|
|------------------------|---------------------|
|------------------------|---------------------|
|------------------------|---------------------|


               (Esus4)     (F#m)            (C#m/F#)
 ~~~~~ PM-----------------------|     PM
  +E   E  E  E E  E E  E   E  E E  E  E E E E
|------------------------|---------------------|
|------------------------|------------2--------|
|------------------------|---------------------|
|-----11----11---11-9-11-|---11----------------|
|-(9)----10----9---------|-9----9--0--------2--|
|------------------------|--------------2------|
|
|                             PM|
|  E   E  E  E E  E E  E   E  E E  E  H
|------------------------|---------------------|
|------------------------|---------------------|
|------------------------|---------------------|
|--------11-12----7-9----|--------12-11--------|
|------9---------------7-|------0--------------|
|------------------------|----2----------------|
|
|  W                       W
|------------------------|---------------------|
|------------------------|---------------------|
|------------------------|---------------------|
|------------------------|---------------------|
|------------------------|---------------------|
|------------------------|---------------------|


          (Esus4)   (Bsus4)
                PM    PM------------|
  E E E E E E E E   E E E  E  E E E E
|-----------------|-------------------|
|-----------------|-------------------|
|-------0---------|-----------0-------|
|---4-----4-------|-----4-------4-----|
|-2---2-----2---2-|---2----2------2-2-|
|-----------------|-------------------|
|
|                     PM|
| E E E E E E E E   E E E  E  H
|-----------------|-------------------|
|-------5---------|-------------------|
|-----6-----------|-------------------|
|---4-------7-9---|-------12-11-------|
|---------------7-|-----0-------------|
|-----------------|---2---------------|
|
| W                 E E E  E  H
|-----------------|-----------0-------|
|-----------------|--------7----------|
|-----------------|-----4-------------|
|-----------------|---0---------------|
|-----------------|-------------------|
|-----------------|-------------------|


                              D.S. al Coda
  (C#m/F#)  (Esus4)   (Bsus4)
                                        Gtrs IV, V
      PM----------|                     ~
   E  E E E E E E E   E E  E  E  E E  E E
|-------------------|----------------------||
|-------------------|----------------------||
|-----------0-------|---------0------------||
|-------4-----4-----|------4-----4---------||
|-----2---2-----2-2-|---2----------2-------||
|-------------------|-------------------3--||
|
|  E  E E E E E E E   E E  E  E  E E  E E
|-------------------|----------------------||
|---------5---------|----------------------||
|-------6-----------|----------------------||
|-----4-------7-9---|--------12-11-9-------||
|-----------------7-|---9-12---------12----||
|-------------------|----------------------||
|
|  >
| +W                  E E  E  E  E E  Q
|-(0)---------------|------------0---------||
|-------------------|---------7------------||
|-------------------|------4-------7--6----||
|-------------------|---0------------------||
|-------------------|----------------------||
|-------------------|----------------------||


                  Chorus
             Faster Q=160
  &
  G5                                 E5                  B5
  Gtrs IV, V
                       PM-----|              PM----|
   H..       E     +E  E E  E E E  E E   +E  E E E E E E E
|--------------||----------------------|-------------------|
|--------------||o---------------------|-------------------|
|--------------||----------------------|-------------------|
|--------------||----------------------|-----------------4-|
|-(7)--------5-||o-(5)-5-5--5-5-5----2-|-(2)-2-2-2-2-2---2-|
|-(5)--------3-||--(3)-3-3--3-3-3----0-|-(0)-0-0-0-0-0-----|
|
| Gtr I
|  W                E  E E  E E E  E E   +E  E E Q   E E E
|--------------||------7-9-10-9-7------|-------------------|
|--------------||o----------------10-8-|-(8)-7-8-7---5-7-5-|
|-(6)----------||----------------------|-------------------|
|--------------||----------------------|-------------------|
|--------------||o---------------------|-------------------|
|--------------||----------------------|-------------------|


                  D5    C#5 D5      G5
      PM----|
  +E  E E E E E E E   E E E E E E E E
|-------------------|--------------------||
|-------------------|-------------------o||
|-------------------|--------------------||
|-(4)-4-4-4-4-4---7-|---7---7---7--------||
|-(2)-2-2-2-2-2---5-|---4---5---4---5---o||
|-------------------|---------------3----||
|
| +E  E E Q   E E E   E E E Q   Q   E
|-------------------|--------------------||
|-(5)-3-5-3---2-3-5-|---3---2---0---0---o||
|-------------------|--------------------||
|-------------------|--------------------||
|-------------------|-------------------o||
|-------------------|--------------------||


                    E5                                  B5
      PM-----|                   PM--------|
  +E  E E  E E E  E  E       +E  E E  E      E    E   E E
|-------------------------|-------------------------------|
|-------------------------|-------------------------------|
|-------------------------|-------------------------------|
|-------------------------|-----------------------------4-|
|-(5)-5-5--5-5-5-----2----|--(2)-2-2--2------2----2-----2-|
|-(3)-3-3--3-3-3-----0----|--(0)-0-0--0------0----0-------|
|
|  E  E E  E E E  E  E       +Q    E  E     +E   +E   Q
|-----7-9-10-9-7-----7----|--(7)------9-----(9)--(9)\-----|
|----------------10-10b12-|-(10)-----12b14-(12)-(12)\-----|
|-------------------------|-------------------------------|
|-------------------------|-------------------------------|
|-------------------------|-------------------------------|
|-------------------------|-------------------------------|


                    D5      C#5 D5              G5
      PM-----|
  +E  E E  E E E  E E    E  E E  E    E   E   E  E
|---------------------|-----------------------------|
|---------------------|-----------------------------|
|---------------------|-----------------------------|
|-(4)-4-4--4-4-4----7-|-----7----7--------7---------|
|-(2)-2-2--2-2-2----5-|-----4----5--------4------5--|
|---------------------|--------------------------3--|
|
|                   ~~~~~~~~                     ~~
|  E  E E  E E E  E E   +Q    E  Q       +E   E  E
|-----7-9-10-9-7----7-|-(7)-----12b14r==(12)----12--|
|----------------10---|----------------------15-----|
|---------------------|-----------------------------|
|---------------------|-----------------------------|
|---------------------|-----------------------------|
|---------------------|-----------------------------|


                           E5                      B5
        PM--------|                PM-----|
   +E   E     E E E E   E  E   +E  E E  E E   E  E  E
|----------------------------|------------------------|
|----------------------------|------------------------|
|----------------------------|------------------------|
|----------------------------|----------------------4-|
|--(5)--5-----5-5-5-5------2-|-(2)-2-2--2-2---2-----2-|
|--(3)--3-----3-3-3-3------0-|-(0)-0-0--0-0---0-------|
|
|   ~~~~      ~~
|  +E   S  S  H        +E  E   +Q.      Q    +Q     E
|-(12)-14-12-10-------(10)-9-|-(9)--------------------|
|----------------------------|---------10---(10)s==12-|
|----------------------------|------------------------|
|----------------------------|------------------------|
|----------------------------|------------------------|
|----------------------------|------------------------|


                    D5     C#5 D5           G5
        PM----|
   +E   E E E E E E  E   E E E  E E  E   E  E
|----------------------|----------------------|
|----------------------|----------------------|
|----------------------|----------------------|
|--(4)--4-4-4-4-4----7-|---7----7----7--------|
|--(2)--2-2-2-2-2----5-|---4----5----4------5-|
|----------------------|--------------------3-|
|
|  +H..              E   E E E  E E  E  +E  E
|-------------------10-|---9---10-------------|
|-(12)-----------------|------------10-(10)s8-|
|----------------------|----------------------|
|----------------------|----------------------|
|----------------------|----------------------|
|----------------------|----------------------|


  Slower Q=154
                              D5
  +W           +H..            E
|------------|-------------------||
|------------|-------------------||
|------------|-------------------||
|------------|-------------------||
|-(5)--------|-(5)------------12-||
|-(3)--------|-(3)------------10-||
|
| +W           +H.       +E    E
|------------|-------------------||
|-(8)--------|-(8)-------(8)\----||
|------------|-------------------||
|------------|-------------------||
|------------|-------------------||
|------------|-------------------||
|
|                             Gtrs II, III
|  W            H..            E
|------------|-----------------9-||
|------------|-------------------||
|------------|----------------11-||
|------------|-------------------||
|------------|-------------------||
|------------|-------------------||


 Guitar Break
                N.C.                                       G5
   +E   E  E  E  e.     e.       E    e.  e.  e  e.  E.     E
|----------------------------------|--------------------------|
|----------------------------------|--------------------------|
|----------------------------------|--------------------------|
|----------------9-----------------|-12--12--12-11---7--------|
|-(12)-12-12----/9-----12-------10-|--9---9---9------0------5-|
|-(10)-10-10-----------------------|-------------7----------3-|
|
| Gtr III
|  +E   E  Q.        E       E   E    H          E.  S   E  E
|--(9)-----------------------------|--------------------------|
|------10--------------------------|-10---------12--10--------|
|---------11--------11-------9--11-|--------------------11-11-|
|----------------------------------|--------------------------|
|----------------------------------|--------------------------|
|----------------------------------|--------------------------|
|
| Gtr II
|                                                           ~~~
|  +E   E  H                +E   E    H          E.  S   E  E
|----------------------------------|--------------------------|
|----------------------------------|--------------------------|
|-(11)-----------------------------|--------------------------|
|------12--------------------------|-12---------14--12--------|
|---------12---------------(12)-14-|--------------------14-14-|
|----------------------------------|--------------------------|


          N.C.                                 D5
   +Q   E  Q      E  E  E    E E  E  E  E  E E  E
|-------------------------|------------------------|
|-------------------------|------------------------|
|-------------------------|------------------------|
|---------10b12---9--7--5-|-------9--7--9----------|
|--(5)-----7b9----7--9--5-|---------------12---12--|
|--(3)--------------------|--7----7--5--7--9---10--|
|
|  +Q   E  Q      E  E  E    E E  E  E  E  E E  E
|-------------------17----|-14---14----14-------9--|
|---------14-----17----17-|---------17----17-------|
|-(11)--------------------|------------------------|
|-------------------------|------------------------|
|-------------------------|------------------------|
|-------------------------|------------------------|
|
|~~~~~~
|  +Q   E  Q      E  E  E    E E  E  E  E  E E  E
|-------------------------|------------------------|
|-------------------15-15-|-12---12----12----------|
|---------11-----14-------|---------14----14---11--|
|-------------------------|------------------------|
|-(14)--------------------|------------------------|
|-------------------------|------------------------|


                N.C.                                       G5
   +E   E  E  E  e.     e.       E    e.  e.  e  e.  E.     E
|----------------------------------|--------------------------|
|----------------------------------|--------------------------|
|----------------------------------|--------------------------|
|----------------9-----------------|-12--12--12-11---7--------|
|-(12)-12-12----/9-----12-------10-|--9---9---9------0------5-|
|-(10)-10-10-----------------------|-------------7----------3-|
|
|  +E   E  Q.        E       E   E    H          E.  S   E  E
|--(9)-----------------------------|--------------------------|
|------10--------------------------|-10---------12--10--------|
|---------11--------11-------9--11-|--------------------11-11-|
|----------------------------------|--------------------------|
|----------------------------------|--------------------------|
|----------------------------------|--------------------------|
|
|                                                           ~~~
|  +E   E  H                +E   E    H          E.  S   E  E
|----------------------------------|--------------------------|
|----------------------------------|--------------------------|
|-(11)-----------------------------|--------------------------|
|------12--------------------------|-12---------14--12--------|
|---------12---------------(12)-14-|--------------------14-14-|
|----------------------------------|--------------------------|


          N.C.
                                                 PM
   +Q   E  Q      E  E  E    E E  E  E  E  E  E  E
|-------------------------|-------------------------|
|-------------------------|-------------------------|
|-------------------------|-------------------------|
|---------10b12---9--7--5-|-------9--7--9-----------|
|--(5)-----7b9----7--9--5-|---------------12--------|
|--(3)--------------------|--7----7--5--7--9-----0--|
|
|  +Q   E  Q      E  E  E    E E  E  E  E  E  E  E
|-------------------17----|-14---14----14-----------|
|---------14-----17----17-|---------17----14\-------|
|-(11)--------------------|-------------------------|
|-------------------------|-------------------------|
|-------------------------|---------------------12--|
|-------------------------|-------------------------|
|
|~~~~~~
|  +Q   E  Q      E  E  E    E E  E  E  E  E  E  E
|-------------------------|-------------------------|
|-------------------15-15-|-12---12----12-----------|
|---------11-----14-------|---------14----14--------|
|-------------------------|---------------------12--|
|-(14)--------------------|-------------------------|
|-------------------------|-------------------------|


   PM|                 PM--|              PM------
   E  E  E  E  E Q     E     E  E  E  Q   E E  E
|------------------------|-----------------------|
|------------------------|-----------------------|
|------------------------|-----------------------|
|-----------4------------|-----------------------|
|-----5--5-------5-------|---------5--7\---------|
|--3-------------------2-|---3--3---------2-3--x-|
|
|  E  E  E  Q.      E  E    +Q     E  H        E
|------------------------|-----------------------|
|------------------------|-----------------------|
|------------------------|-----------------------|
|-------11-12---------11-|-(11)---12-------------|
|-12-14------------14----|-----------14-------12-|
|------------------------|-----------------------|
|
|  E  E  E  Q.      E  E    +Q     E  H        E
|------------------------|-----------------------|
|------------------------|-----------------------|
|-------11-12---------11-|-(11)---12-------------|
|-12-14------------14----|-----------14-------12-|
|------------------------|-----------------------|
|------------------------|-----------------------|


 ----|                 PM--|              PM--|
   E  E  E  E  E Q     E     E  E  E  Q   E E  E
|------------------------|------------------------|
|------------------------|------------------------|
|------------------------|------------------------|
|-----------4------------|------------------------|
|-----5--5-------5-------|---------5--7\----------|
|--3-------------------2-|---3--3---------2-3--x--|
|
|  E  E  E  Q.      E  E    +Q     E  H        E
|------------------------|------------------------|
|------------------------|------------------------|
|------------------------|------------------------|
|-------11-12---------11-|-(11)---12--------------|
|-12-14------------14----|-----------14-------12--|
|------------------------|------------------------|
|
|  E  E  E  Q.      E  E    +Q     E  H        E
|------------------------|------------------------|
|------------------------|------------------------|
|-------11-12---------11-|-(11)---12--------------|
|-12-14------------14----|-----------14-------12--|
|------------------------|------------------------|
|------------------------|------------------------|


   PM------------|        PM----| ~~
   E E E E E E E E     E  E E E E Q.
|------------------|-------------------|
|------------------|-------------------|
|------------------|-------------------|
|------------------|------7-5-4--------|
|--0-7-5-0-0-7---4-|------------7-4----|
|------------------|-------------------|
|
|  W                  +W
|------------------|-------------------|
|------------------|-------------------|
|------------------|-------------------|
|------------------|-------------------|
|------------------|-------------------|
|-12---------------|-(12)--------------|
|
|  W                  +W
|------------------|-------------------|
|------------------|-------------------|
|------------------|-------------------|
|------------------|-------------------|
|-12---------------|-(12)--------------|
|------------------|-------------------|


      PM---------------------|         PM---------|    ~~~
   E  E     E  E  E  E     E  E     E  E     E  E  E   Q.
|-------------------------------|-------------------------------------|
|-------------------------------|-------------------------------------|
|-------------------------------|-------------------------------------|
|-----------------7-------------|------7-----5--4---------------------|
|--0--7-----5--0-----7--------4-|------------------7------------------|
|-------------------------------|----------------------7--------------|
|
|  E.    E.    E  E.    E.    E     E.    E.    E  E   Q.
|-------------------------------|-------------------------------------|
|-------------------------------|-/12-------------12------------------|
|----------------11----12----14-|--------14----12-----14--------------|
|-11----12----14----------------|-------------------------------------|
|-------------------------------|-------------------------------------|
|-------------------------------|-------------------------------------|
|
|  PM---------|
|  e.    e.    E  E.    E.    E     E.    E.    E  E.      Q   +S
|-------------------------------|-------------------------------------|
|-------------------------------|-------------------------------------|
|----------------------------11-|--12----11-------12------11--(11)\---|
|-------------11-12----14-------|--------------14---------------------|
|-12----14----------------------|-------------------------------------|
|-------------------------------|-------------------------------------|


   PM|                 PM--|              PM------
   E  E  E  E  E Q     E     E  E  E  Q   E E  E
|------------------------|-----------------------|
|------------------------|-----------------------|
|------------------------|-----------------------|
|-----------4------------|-----------------------|
|-----5--5-------5-------|---------5--7\---------|
|--3-------------------2-|---3--3---------2-3--x-|
|
|  E  E  E  Q.      E  E    +Q     E  H        E
|------------------------|-----------------------|
|------------------------|-----------------------|
|------------------------|-----------------------|
|-------11-12---------11-|-(11)---12-------------|
|-12-14------------14----|-----------14-------12-|
|------------------------|-----------------------|
|
|  E  E  E  Q.      E  E    +Q     E  H        E
|------------------------|-----------------------|
|------------------------|-----------------------|
|-------11-12---------11-|-(11)---12-------------|
|-12-14------------14----|-----------14-------12-|
|------------------------|-----------------------|
|------------------------|-----------------------|


 ----|                 PM--|              PM--|
   E  E  E  E  E Q     E     E  E  E  Q   E E  E
|------------------------|------------------------|
|------------------------|------------------------|
|------------------------|------------------------|
|-----------4------------|------------------------|
|-----5--5-------5-------|---------5--7\----------|
|--3-------------------2-|---3--3---------2-3--x--|
|
|  E  E  E  Q.      E  E    +Q     E  H        E
|------------------------|------------------------|
|------------------------|------------------------|
|------------------------|------------------------|
|-------11-12---------11-|-(11)---12--------------|
|-12-14------------14----|-----------14-------12--|
|------------------------|------------------------|
|
|  E  E  E  Q.      E  E    +Q     E  H        E
|------------------------|------------------------|
|------------------------|------------------------|
|-------11-12---------11-|-(11)---12--------------|
|-12-14------------14----|-----------14-------12--|
|------------------------|------------------------|
|------------------------|------------------------|


   PM------------|        PM----| ~~
   E E E E E E E E     E  E E E E Q.
|------------------|-------------------|
|------------------|-------------------|
|------------------|-------------------|
|------------------|------7-5-4--------|
|--0-7-5-0-0-7---4-|------------7-4----|
|------------------|-------------------|
|
|  W                  +W
|------------------|-------------------|
|------------------|-------------------|
|------------------|-------------------|
|------------------|-------------------|
|------------------|-------------------|
|-12---------------|-(12)--------------|
|
|  W                  +W
|------------------|-------------------|
|------------------|-------------------|
|------------------|-------------------|
|------------------|-------------------|
|-12---------------|-(12)--------------|
|------------------|-------------------|


      PM---------------------|          PM--------------|   ~
   E  E     E  E  E  E     E  E    E    E     E    E     E  Q       E
|-------------------------------|-------------------------------------||
|-------------------------------|-------------------------------------||
|-------------------------------|-------------------------------------||
|--------------------7----------|-------7-----5----4------------------||
|--0--7-----5--0--5-----------4-|------------------------7------------||
|-------------------------------|---------------------------5-------2-||
|
|                                  |---3---|  |---3---|
|  E.    E.    E  E.    E.    E    E  E    E  E  E    E  Q.         E
|-------------------------------|-------------------------------------||
|-------------------------------|-------------------------------------||
|----------------11-------------|-11---------11-----------------------||
|-11----12----14-------14----12-|----14---12----12---11-11----------0-||
|-------------------------------|-------------------------------------||
|-------------------------------|-------------------------------------||
|
|  PM---------|                                          ~~~
|                                  |---3---|  |---3---|
|  e.    e.    E  E.    E.    E    E  E    E  E  E    E  Q     +Q
|-------------------------------|-------------------------------------||
|-------------------------------|-------------------------------------||
|-------------------------------|-------------------------------------||
|-------------11-12----11-------|-12-11------12-11--------------------||
|-12----14-------------------14-|---------14---------14-12----(12)\---||
|-------------------------------|-------------------------------------||


 Interlude
  B5                     C#5           D5
  Gtrs II, III, IV, V    Gtr I
  H     H        H.       E     E       H       Q   E     E
|------------||----------------------|--------------------------|
|------------||o---------------------|--------------------------|
|------------||----------------------|--------------------------|
|-9\---------||----------------------|--------------------------|
|-9\---------||o---------12----------|-12\---------12-----------|
|-7\---------||-----------9----------|-10\---------10-----------|
|
|                        Gtr III
| W              H.       S  S  S  S    E  E H      S  S  S  S
|------------||----------------------|--------------------------|
|------------||o---------14h15h17p15p|=14----------14h15h17p15p=|
|------------||----------------------|--------------------------|
|------------||----------------------|--------------------------|
|------------||o---------------------|--------------------------|
|------------||----------------------|--------------------------|


  E5          C#5           D5                        C#5         D5
   H       Q   E     E       H        H        H    E  E     E     E
|-------------------------|-----------------||-----------------------|
|-------------------------|----------------o||-----------------------|
|-------------------------|-----------------||-----------------------|
|-------------------------|-----------------||-----------------------|
|-14\----------7----------|--9\------------o||--------12----------12-|
|-12\----------5----------|--7\-------------||---------9----------10-|
|
|  E  E H      S  S  S  S    E  H..            H    E  S  S  S  S  E
|-------------------------|-----------------||-----------------------|
|-14----------14h15h17p15p|=14-------------o||--------14h15h17p15p14-|
|-------------------------|-----------------||-----------------------|
|-------------------------|-----------------||-----------------------|
|-------------------------|----------------o||-----------------------|
|-------------------------|-----------------||-----------------------|


                            E5
   +E   E E E E  E     E     E
|------------------------------|
|------------------------------|
|------------------------------|
|------------------------------|
|-(12)\-x-x-x-x-12----------14-|
|-(10)\-x-x-x-x-10----------12-|
|
|   H         E  S  S  S  S  E
|------------------------------|
|---------------14h15h17p15p14-|
|------------------------------|
|------------------------------|
|------------------------------|
|------------------------------|


                C#5         D5
   +E   E E E E  E     E     E   +E   E E E E E E E
|------------------------------|--------------------|
|------------------------------|--------------------|
|------------------------------|--------------------|
|------------------------------|--------------------|
|-(14)\-x-x-x-x--7-----------9-|-(9)\-x-x-x-x-x-x-x-|
|-(12)\-x-x-x-x--5-----------7-|-(7)\-x-x-x-x-x-x-x-|
|
|   H         E  S  S  S  S  E    W
|------------------------------|--------------------|
|---------------14h15h17p15p14-|--------------------|
|------------------------------|--------------------|
|------------------------------|--------------------|
|------------------------------|--------------------|
|------------------------------|--------------------|


            C#5         D5
  E E E E E  E     E     E
|--------------------------|
|--------------------------|
|--------------------------|
|--------------------------|
|-x-x-x-x-x-12----------12-|
|-x-x-x-x-x--9----------10-|
|
| H       E  S  S  S  S  E
|--------------------------|
|-----------14h15h17p15p14-|
|--------------------------|
|--------------------------|
|--------------------------|
|--------------------------|


                            E5               C#5
   +E   E E E E  E     E     E    +Q.    E E  E  E  E
|------------------------------|----------------------|
|------------------------------|----------------------|
|------------------------------|----------------------|
|------------------------------|----------------------|
|-(12)\-x-x-x-x-12----------14-|-(14)\---x-x--7--x--x-|
|-(10)\-x-x-x-x-10----------12-|-(12)\---x-x--5--x--x-|
|
|   H         E  S  S  S  S  E     H       E  E  E  E
|------------------------------|----------------------|
|---------------14h15h17p15p14-|-------------14-15\---|
|------------------------------|----------------------|
|------------------------------|----------------------|
|------------------------------|----------------------|
|------------------------------|----------------------|


  Q=156
  B5                           A5
   W           +W               W           +W
|-----------|----------------|-----------|----------------|
|-----------|----------------|-----------|----------------|
|-----------|----------------|-----------|----------------|
|-----------|----------------|-----------|----------------|
|--9--------|--(9)\----------|--7--------|--(7)\----------|
|--7--------|--(7)\----------|--5--------|--(5)\----------|
|
| Gtr IV
|  W           +H.       E E    W           +H..       E
|-----------|----------------|-----------|----------------|
|-----------|----------------|-----------|----------------|
|-----------|----------------|-----------|----------------|
|-----------|----------------|-----------|----------------|
|--9--------|--(9)\------x-x-|--7--------|--(7)\-------x--|
|--7--------|--(7)\------x-x-|--5--------|--(5)\-------x--|
|
| Gtr II
|  W           +W               W           +W
|-----------|----------------|-----------|----------------|
|-12--------|-(12)-----------|-12--------|-(12)-----------|
|-----------|----------------|-----------|----------------|
|-----------|----------------|-----------|----------------|
|-----------|----------------|-----------|----------------|
|-----------|----------------|-----------|----------------|


  G5                          F#5             G5
   W           +W              W               W
|-----------|---------------|---------------|----------------|
|-----------|---------------|---------------|----------------|
|-----------|---------------|---------------|----------------|
|-----------|---------------|---------------|----------------|
|--5--------|--(5)\---------|--4------------|--5-------------|
|--3--------|--(3)\---------|--2------------|--3-------------|
|
|  W           +H..       E    H..        E    H..        E
|-----------|---------------|---------------|----------------|
|-----------|---------------|---------------|----------------|
|-----------|---------------|---------------|----------------|
|-----------|---------------|---------------|----------------|
|--5--------|--(5)\-------x-|--4----------x-|--5----------x--|
|--3--------|--(3)\-------x-|--2----------x-|--3----------x--|
|
|                              ~~~~~
|  W           +W              W               W
|-----------|---------------|---------------|-12-------------|
|-----------|---------------|-15------------|-15b17----------|
|-11--------|-(11)----------|-17b19---------|----------------|
|-----------|---------------|---------------|----------------|
|-----------|---------------|---------------|----------------|
|-----------|---------------|---------------|----------------|


  B5
   W          +W
|-----------|-----------------------------------|
|-----------|-----------------------------------|
|-----------|-----------------------------------|
|-----------|-----------------------------------|
|--9--------|-(9)\-----------------
Добавлено: 29.07.2012
Другие материалы по этой песне:

Страница создана 10.03.2012
http://primanota.ru/coheed-and-cambria/the-willing-well-iii-apollo-i-the-telling-truth-chords.htm
Привет, Гость.
Предлагаем пройти революционный курс по гитаре.
Подарок от PrimaNota.Ru, забирай!