PrimaNota.ru - самый крупный в мире бесплатный архив песенных текстов, аккордов, табулатур и нот


Coheed & Cambria - The Velourium Camper I Faint Of Hearts - текст песни, таба, бас-таба, видео

Регистрация Запомнить меня
Войти через:  Facebook Google Twitter Vk Yandex Mail.ru

Coheed & Cambria - The Velourium Camper I Faint Of Hearts - текст песни, таба, бас-таба, видео

Печатать
Просмотров: 113


THE VELOURIUM CAMPER I: FAINT OF HEARTS
                        As recorded by Coheed and Cambria
           (From the 2003 Album IN KEEPING SECRETS OF SILENT EARTH: 3)

Words by Claudio Sanchez
Music by Coheed and Cambria
Transcribed by flipthin + sprinklerthief

Gtr I (E A D G B E) - 'dist.'
Gtr II (E A D G B E) - 'dist.'
Gtr III (E A D G B E) - 'dist.'

 Drums  Intro/Mini Guitar Solo
  Moderately Fast Rock Q=138
         E5      N.C.
 3/8    4/4
         Gtrs I, III
                           ~~~~~~~~~
  Q.     E E E E   E  E E  E    +E   E  E  S S E  E  E E
|------|---------------------|---------------------------|
|------|---------------------|---------------------------|
|------|---------------------|---------------------------|
|------|-9-9-9----/5--5-5--4-|--(4)--0-----4-5-7--0--0---|
|------|-7-0-7---------------|-------------------------0-|
|------|---------------------|---------------------------|
|
|                Gtr II
| Q.     H         Q.      E    +E   E  E  E   E  E  E E
|------|---------/12------10-|-(10)----------------------|
|------|---------------------|------12-10-12---8-10----8-|
|------|---------------------|----------------------12---|
|------|---------------------|---------------------------|
|------|---------------------|---------------------------|
|------|---------------------|---------------------------|


  C5
             ~~~~~~~              PM--------|
  E E E E E  Q       E   +E   E E S S E E E E
|----------------------|----------------------|
|----------------------|----------------------|
|-----------/4b4.5r====|======================|
|-5-5-5---5----------4-|-(4)------------------|
|-3-0-3---3------------|----------------------|
|----------------------|-----10---0-0-7-0-7-0-|
|
| ~
| H       E  E     E E   +E   E E E   E E E E
|----------------------|----------------------|
|---------8--8-------7-|-(7)--7---------------|
|-9-------9--9-------7-|-(7)--7---7---9-9-7---|
|----------------------|----------------------|
|----------------------|----------------------|
|----------------------|----------------------|


  E5         N.C.
                       ~~~~~~~~~
  E  E E   E  E  E  E  E    +E   E  E  S S  E     E  E  E
|------------------------|--------------------------------|
|------------------------|--------------------------------|
|------------------------|--------------------------------|
|-9--9-9-----/5--5--5--4-|--(4)--0-----4-5--7-----0--0----|
|-7--0-7-----------------|------------------------------0-|
|------------------------|--------------------------------|
|
| Q.       E  E  E  E  E    +E   E  E  E    S  S  E  E  E
|---------------12-15-17-|-(17)-15-12-15---15p12----12----|
|--------/12-15----------|-----------------------15----12-|
|------------------------|--------------------------------|
|------------------------|--------------------------------|
|------------------------|--------------------------------|
|------------------------|--------------------------------|


  C5                                   N.C.
                ~~~~~~~                 PM----|
   E E  E E  E  Q        E    +E   E E  S S S  S  S  S S  S  E
|--------------------------|------------------------------------||
|--------------------------|------------------------------------||
|---------------4b4.5r=====|====================================||
|--5-5--5----5-----------4-|--(4)----------------------9--------||
|--3-0--3----3-------------|-------5----------------10---10-----||
|--------------------------|------------0-0-8h10h12---------12-||
|
|  Q    E E  E  E     E  E    +E   E E  E   E     E    Q
|--------------------------|------------------------------------||
|--------------------------|------------------------------------||
|-14---12---12S11p====9-11-|-(11)-----------9----12----9--------||
|--------------------------|------12---12-----------------------||
|--------------------------|------------------------------------||
|--------------------------|------------------------------------||


 Verse
  E5
                   ~~~~~~~~
   Q    E E  E E E E   +E  E E S S E E E E
|--------------------|---------------------|
|--------------------|---------------------|
|--------------------|---------------------|
|-------9---/5-5-5-4-|-(4)-0---4-5-7-0-0---|
|-------7------------|-------------------0-|
|--------------------|---------------------|
|
|                  ~~~~~~~~
| +Q    E E  E E E E   +E  E E S S E E E E
|--------------------|---------------------|
|--------------------|---------------------|
|-(9)---------------|---------------------|
|-------9---/5-5-5-4-|-(4)-0---4-5-7-0-0---|
|-------7------------|-------------------0-|
|--------------------|---------------------|


  C5
              ~~~~~~~~~~~~~~~~~~     PM--------|
  E E E E E   Q        E    +E   E E S S E E E E
|-------------------------|------------------------|
|-------------------------|------------------------|
|-----------/[4]b4.5r=====|========================|
|-5-5-5---5-----------[4]-|-(4)--------------------|
|-3-0-3---3---------------|------------------------|
|-------------------------|-----10---0-0-7-0-7-0---|
|
|             ~~~~~~~~~~~~~~~~~~     PM--------|
| E E E E E   Q        E    +E   E E S S E E E E
|-------------------------|------------------------|
|-------------------------|------------------------|
|-----------/[4]b4.5r=====|========================|
|-5-5-5---5-----------[4]-|-(4)--------------------|
|-3-0-3---3---------------|------------------------|
|-------------------------|-----10---0-0-7-0-7-0---|


  E5
                 ~~~~~~~~
  E E E E  E E E E   +E  E E S S E E E E
|------------------|---------------------|
|------------------|---------------------|
|------------------|---------------------|
|-9-9-9---/5-5-5-4-|-(4)-0---4-5-7-0-0---|
|-7-0-7------------|-------------------0-|
|------------------|---------------------|
|
|                ~~~~~~~~
| E E E E  E E E E   +E  E E S S E E E E
|------------------|---------------------|
|------------------|---------------------|
|------------------|---------------------|
|-7-5-----/5-5-5-4-|-(4)-0---4-5-7-0-0---|
|-----7------------|-------------------0-|
|------------------|---------------------|


  C5
              ~~~~~~~~~~~~~~~~    PM----|
  E E E E E   Q       E   +E  E E S S S  S  S  S S  S  E
|-----------------------|----------------------------------|
|-----------------------|----------------------------------|
|-----------/[4]b4.5r===|==================================|
|-5-5-5---5-----------4-|-(4)--------------------9---------|
|-3-0-3---3-------------|-----5---------------10---10------|
|-----------------------|---------0-0-8h10h12---------12--|
|
|             ~~~~~~~~~           PM----|
| E E E E E   Q       E   +E  E E S S S  S  S  S S  S  E
|-----------------------|----------------------------------|
|-----------------------|----------------------------------|
|------------/4b4.5r====|==================================|
|-5-5-5---5-----------4-|-(4)--------------------9---------|
|-3-0-3---3-------------|-----5---------------10---10------|
|-----------------------|---------0-0-8h10h12---------12--|


  E5
                 ~~~~~~~~
  E E E E  E E E E   +E  E E S S E E E E
|------------------|---------------------|
|------------------|---------------------|
|------------------|---------------------|
|-9-9-9---/5-5-5-4-|-(4)-0---4-5-7-0-0---|
|-7-0-7------------|-------------------0-|
|------------------|---------------------|
|
|                ~~~~~~~~
| E E E E  E E E E   +E  E E E   E E E E
|------------------|---------------------|
|------------------|-------------5-------|
|------------------|---------7-----4-7-4-|
|-9-9-9---/5-5-5-4-|-(4)-0---------------|
|-7-0-7------------|---------------------|
|------------------|---------------------|


  C5
              ~~~~~~~~~~~~~~~~~~    PM--------|
  E E E E E   Q        E    +E  E E S S E E E E
|-------------------------|-----------------------|
|-------------------------|-----------------------|
|-----------/[4]b4.5r=====|=======================|
|-5-5-5---5-----------[4]-|-(4)-------------------|
|-3-0-3---3---------------|-----5-----------------|
|-------------------------|---------0-0-7-0-7-0---|
|
|             ~~~~~~~~~~~~~~~~~~
| E E E E E   Q        E    +E  E E E   E E E E
|-------------------------|-----------------------|
|-------------------------|-----------------------|
|-----------/[4]b4.5r=====|=======================|
|-5-5-5---5-----------[4]-|-(4)---------5---5-----|
|-3-0-3---3---------------|-----5---5-----5---5---|
|-------------------------|-----------------------|


  E5
                 ~~~~~~~~
  E E E E  E E E E   +E  E E S S E E E E
|------------------|---------------------|
|------------------|---------------------|
|------------------|---------------------|
|-9-9-9---/5-5-5-4-|-(4)-0---4-5-7-0-0---|
|-7-0-7------------|-------------------0-|
|------------------|---------------------|
|
|                ~~~~~~~~
| E E E E  E E E E   +E  E E S S E E E E
|------------------|---------------------|
|------------------|---------------------|
|------------------|---------------------|
|-7-5-----/5-5-5-4-|-(4)-0---4-5-7-0-0---|
|-----7------------|-------------------0-|
|------------------|---------------------|


  C5
              ~~~~~~~~~~~~~~~~~~     PM---------|
  E E E E E   Q        E    +E  E E  S S E E E  E
|-------------------------|-------------------------||
|-------------------------|-------------------------||
|-----------/[4]b4.5r=====|=========================||
|-5-5-5---5-----------[4]-|-(4)---------------------||
|-3-0-3---3---------------|-----5-------------------||
|-------------------------|----------0-0-7-0-7--0---||
|
|             ~~~~~~~~~~~~~~~~~~
| E E E E E   Q        E    +E  E E  E   E E Q
|-------------------------|-------------------------||
|-------------------------|-------------------------||
|-----------/[4]b4.5r=====|=========================||
|-5-5-5---5-----------[4]-|-(4)------------5--------||
|-3-0-3---3---------------|-----5---/5---7---7-----||
|-------------------------|-------------------------||


   Chorus
    $
    G5                  E5
      PM------------------------------|
    E E E E E E E S S   E E E E E E E E
||--------------------|-----------------|
||o-------------------|-----------------|
||--------------------|-----------------|
||--------------------|-----------------|
||o-5-5-5-5-5-5-5-5-5-|-2-2-2-2-2-2-2-2-|
||--3-3-3-3-3-3-3-3-3-|-0-0-0-0-0-0-0-0-|
|
|   W                   W
||--------------------|-----------------|
||o-------------------|-----------------|
||--------------------|-----------------|
||--------------------|-----------------|
||o-------------------|-----------------|
||--------------------|-----------------|


  C5
     PM--------------------------------------|
  E  E  E  E E  E  E  E   E  E  E  E E  E  E  E
|-----------------------|------------------------||
|-----------------------|-----------------------o||
|-----------------------|------------------------||
|-5--5--5--5-5--5--5--5-|-5--5--5--5-5--5--5--5--||
|-3--3--3--3-3--3--3--3-|-3--3--3--3-3--3--3--3-o||
|-----------------------|------------------------||
|
| E  E  E  E E  E  E  E   E  E  E  E E  E  E  E
|-----------------------|------------------------||
|------12---------12----|------12---------12----o||
|---------12---------12-|---------12---------12--||
|---10---------10-------|---10---------10--------||
|-----------------------|-----------------------o||
|-----------------------|------------------------||


  G5                      E5
     PM-------------------------------------|
  E  E  E E  E E  E S S   E  E  E E  E E  E E
|-----------------------|---------------------|
|-----------------------|---------------------|
|-----------------------|---------------------|
|-----------------------|---------------------|
|-5--5--5-5--5-5--5-5-5-|-2--2--2-2--2-2--2-2-|
|-3--3--3-3--3-3--3-3-3-|-0--0--0-0--0-0--0-0-|
|
| E  E  E E  E E  E E     E  E  E E  E E  E E
|-----------------------|---------------------|
|---12------------------|---12----------------|
|------12---11---12-----|------12---11---12---|
|-----------------------|---------------------|
|-----------------------|---------------------|
|-----------------------|---------------------|


  C5
     PM-----------------------------------|
  E  E  E E  E E  E E   E  E  E E  E E  E E
|---------------------|---------------------|
|---------------------|---------------------|
|---------------------|---------------------|
|-5--5--5-5--5-5--5-5-|-5--5--5-5--5-5--5-5-|
|-3--3--3-3--3-3--3-3-|-3--3--3-3--3-3--3-3-|
|---------------------|---------------------|
|
| E  E  E E  E E  E E   E  E  E E  E E  E E
|---------------------|---------------------|
|---12----------------|---12----------------|
|------12---11---12---|------12---11---12---|
|---------------------|---------------------|
|---------------------|---------------------|
|---------------------|---------------------|


                                                                   To Coda
  A5                                     E5                 D5
    PM-------------------------------|     PM-----------|     PM----------|
  E E  E E E E E E    E E E E E E  E E   E E E E E E E  E   E E E E E E E E
|------------------|-------------------|------------------|-----------------|
|------------------|-------------------|------------------|-----------------|
|------------------|-------------------|------------------|-----------------|
|------------------|-------------------|-9-9-9-9-9-9-9--9-|-7-7-7-7-7-7-7---|
|-7-7--7-7-7-7-7-7-|--7-7-7-7-7-7--7-7-|-7-7-7-7-7-7-7--7-|-5-5-5-5-5-5-5-0-|
|-5-5--5-5-5-5-5-5-|--5-5-5-5-5-5--5-5-|------------------|-----------------|
|
| E E  E E E E E E    E E E E E E  E E   E E E E E E Q      E E E E E E Q
|------------------|-------------------|------------------|-----------------|
|------------------|-------------------|------------------|-----------------|
|----------9-------|------9------------|---9-----9--------|---7-----7-------|
|-7-9-10-7---9-7-9-|-10-7---9-7-9-10-7-|-----9-----9------|-----7-----7-----|
|------------------|-------------------|-7-----7-----7---|-5-----5-----5---|
|------------------|-------------------|------------------|-----------------|


  C5
   W           +W
|-----------|---------||
|-----------|---------||
|-----------|---------||
|-----------|---------||
|-10--------|-(10)----||
|--8--------|--(8)----||
|
|  W           +W
|-----------|---------||
|-----------|---------||
|-----------|---------||
|-10--------|-(10)----||
|-10--------|-(10)----||
|--8--------|--(8)----||


 Verse
  E5
                 ~~~~~~~~
  E E E E  E E E E   +E  E E S S E E E E
|------------------|---------------------|
|------------------|---------------------|
|------------------|---------------------|
|-9-9-9---/5-5-5-4-|-(4)-0---4-5-7-0-0---|
|-7-0-7------------|-------------------0-|
|------------------|---------------------|
|
|                ~~~~~~~~
| E E E E  E E E E   +E  E E E   E E E E
|------------------|---------------------|
|------------------|-------------5-------|
|------------------|---------7-----4-7-4-|
|-9-9-9---/5-5-5-4-|-(4)-0---------------|
|-7-0-7------------|---------------------|
|------------------|---------------------|


  C5
              ~~~~~~~~~~~~~~~~~~    PM--------|
  E E E E E   Q        E    +E  E E S S E E E E
|-------------------------|-----------------------|
|-------------------------|-----------------------|
|-----------/[4]b4.5r=====|=======================|
|-5-5-5---5-----------[4]-|-(4)-------------------|
|-3-0-3---3---------------|-----5-----------------|
|-------------------------|---------0-0-7-0-7-0---|
|
|             ~~~~~~~~~
| E E E E E   Q        E    +E  E E E   E E E E
|-------------------------|-----------------------|
|-------------------------|-----------------------|
|------------/4b4.5r======|=======================|
|-5-5-5---5------------4--|-(4)---------5---5-----|
|-3-0-3---3---------------|-----5---5-----5---5---|
|-------------------------|-----------------------|


  E5
                 ~~~~~~~~
  E E E E  E E E E   +E  E E S S E E E E
|------------------|---------------------|
|------------------|---------------------|
|------------------|---------------------|
|-9-9-9---/5-5-5-4-|-(4)-0---4-5-7-0-0---|
|-7-0-7------------|-------------------0-|
|------------------|---------------------|
|
|                ~~~~~~~~
| E E E E  E E E E   +E  E E E   E E E E
|------------------|---------------------|
|------------------|-------------5-------|
|------------------|---------7-----4-7-4-|
|-7-5-----/5-5-5-4-|-(4)-0---------------|
|-----7------------|---------------------|
|------------------|---------------------|


  C5
              ~~~~~~~~~~~~~~~~    PM----|
  E E E E E   Q       E   +E  E E S S S  S  S  S S  S  E
|-----------------------|----------------------------------|
|-----------------------|----------------------------------|
|-----------/[4]b4.5r===|==================================|
|-5-5-5---5-----------4-|-(4)--------------------9---------|
|-3-0-3---3-------------|-----5---------------10---10------|
|-----------------------|---------0-0-8h10h12---------12--|
|
|             ~~~~~~~~~           PM----|
| E E E E E   Q       E   +E  E E S S S  S  S  S S  S  E
|-----------------------|----------------------------------|
|-----------------------|----------------------------------|
|------------/4b4.5r====|==================================|
|-5-5-5---5-----------4-|-(4)--------------------9---------|
|-3-0-3---3-------------|-----5---------------10---10------|
|-----------------------|---------0-0-8h10h12---------12--|


  E5
                 ~~~~~~~~
  E E E E  E E E E   +E  E E S S E E E E
|------------------|---------------------|
|------------------|---------------------|
|------------------|---------------------|
|-9-9-9---/5-5-5-4-|-(4)-0---4-5-7-0-0---|
|-7-0-7------------|-------------------0-|
|------------------|---------------------|
|
|                ~~~~~~~~
| E E E E  E E E E   +E  E E E   E E E E
|------------------|---------------------|
|------------------|-------------5-------|
|------------------|---------7-----4-7-4-|
|-7-0-----/5-5-5-4-|-(4)-0---------------|
|-----7------------|---------------------|
|------------------|---------------------|


  C5
             ~~~~~~~~~~~~~~~    PM--------|
  E E E E E  Q      E   +E  E E S S E E E E
|---------------------|-----------------------|
|---------------------|-----------------------|
|-----------/4b4.5r===|=======================|
|-5-5-5---5---------4-|-(4)-------------------|
|-3-0-3---3-----------|-----5-----------------|
|---------------------|---------0-0-7-0-7-0---|
|
|            ~~~~~~~
| E E E E E  Q      E   +E  E E E   E E E E
|---------------------|-----------------------|
|---------------------|-----------------------|
|-----------/4b4.5r===|=======================|
|-5-5-5---5---------4-|-(4)---------5---5-----|
|-3-0-3---3-----------|-----5---5-----5---5---|
|---------------------|-----------------------|


  E5
                 ~~~~~~~~
  E E E E  E E E E   +E  E E S S E E E E
|------------------|---------------------|
|------------------|---------------------|
|------------------|---------------------|
|-9-9-9---/5-5-5-4-|-(4)-0---4-5-7-0-0---|
|-7-0-7------------|-------------------0-|
|------------------|---------------------|
|
|                ~~~~~~~~
| E E E E  E E E E   +E  E E S S E E E E
|------------------|---------------------|
|------------------|-------------5-------|
|------------------|---------4-7---4-7-4-|
|-7-5-----/5-5-5-4-|-(4)-0---------------|
|-----7------------|---------------------|
|------------------|---------------------|


                                  D.S. al Coda
  C5
             ~~~~~~~             PM---------|
  E E E E E  Q      E   +E  E E  S S E E E  E
|---------------------|-------------------------||
|---------------------|-------------------------||
|-----------/4b4.5r===|=========================||
|-5-5-5---5---------4-|-(4)---------------------||
|-3-0-3---3-----------|-----5-------------------||
|---------------------|----------0-0-7-0-7--0---||
|
|            ~~~~~~~
| E E E E E  Q      E   +E  E E  E   E E Q
|---------------------|-------------------------||
|---------------------|-------------------------||
|-----------/4b4.5r===|=========================||
|-5-5-5---5---------4-|-(4)------------5--------||
|-3-0-3---3-----------|-----5---/5---7---7-----||
|---------------------|-------------------------||


  amp;
  C5                          G5
   W           +H      +Q   E E
|-----------|-------------------||
|-----------|-------------------||
|-----------|-------------------||
|-----------|-------------------||
|-10--------|-(10)----(10)--x-5-||
|--8--------|--(8)-----(8)--x-3-||
|
|  W           +H      +Q   E E
|-----------|-------------------||
|-----------|-------------------||
|-----------|-------------------||
|-----------|-------------------||
|-10--------|-(10)----(10)--x-5-||
|--8--------|--(8)-----(8)--x-3-||


   Breakdown
        G5                                                  C5
    +E  E   S   S   Q    E  E E   +E  E   S   S   Q    E  E E
||------------------------------|-----------------------------|
||o-----------------------------|-----------------------------|
||---------[4]-[5]-[4]----------|--------[4]-[5]-[4]----------|
||-----------------------7--5---|----------------------7--5-5-|
||o-(5)-5---------------------5-|-(5)-5---------------------3-|
||--(3)-3---------------------3-|-(3)-3-----------------------|
|
|   +E  E   S   S   Q    E  E E   +E  E   S   S   Q    E  E E
||------------------------------|-----------------------------|
||o-----------------------------|-----------------------------|
||--------/12--14--12---11------|-------/12--14--12---11------|
||-------------------------14---|------------------------14-5-|
||o-(5)-5---------------------5-|-(5)-5---------------------3-|
||--(3)-3---------------------3-|-(3)-3-----------------------|


                     1.
                  E5        D5      G5
        PM------|
  +E  E E E E E E E   E E E E E E E E
|-------------------|-------------------||
|-------------------|------------------o||
|-------------------|-------------------||
|-(5)-5-5-5-5-5-5-9-|---9---7---7-------||
|-(3)-3-3-3-3-3-3-7-|---7---5---5---5--o||
|-------------------|---------------3---||
|
|       PM------|
| +E  E E E E E E E   E E E E E E E E
|-------------------|-------------------||
|-------------------|------------------o||
|-------------------|-------------------||
|-(5)-5-5-5-5-5-5-9-|---9---7---7-------||
|-(3)-3-3-3-3-3-3-7-|---7---5---5---5--o||
|-------------------|---------------3---||


                    Interlude
  2.
    E5  D5      A5                                           B5
                         PM------------------------------------------------|
  E E E E E E E E    +E  E E E E E E E   E E E E E E E E     E E E E E E E E
|-----------------||-------------------|-------------------|-----------------|
|-----------------||-------------------|-------------------|-----------------|
|-----------------||-------------------|-------------------|-----------------|
|---9---7---7-----||-------------------|-------------------|-4-4-4-4-4-4-4-4-|
|---7---5---5---7-||-(7)-7-7-7-7-7-7-7-|-7-7-7-7-7-7-7-7---|-2-2-2-2-2-2-2-2-|
|---------------5-||-(5)-5-5-5-5-5-5-5-|-5-5-5-5-5-5-5-5---|-----------------|
|
| E E E E E E Q       E  E E E E E E E   E E E E E E E S S   E E E E E E E E
|-----------------||-------------------|-------------------|-----------------|
|-----------------||---------0-----3---|---0-----3-1---0h1p|=0-----0-----3---|
|---9---7---7-----||-------2---0-2-----|-2---4-------------|-----2---0-2-----|
|---9---7---7-----||-----4-----------4-|-------4-----------|---4-----------4-|
|---7---5---5-----||-------------------|-------------------|-----------------|
|-----------------||-------------------|-------------------|-----------------|


                      C5
  PM--------------------------------------------------|
  E E E E E E E E     E E E E E E E E   E E E E E E E E
|-------------------|-----------------|---------------------|
|-------------------|-----------------|---------------------|
|-------------------|-----------------|---------------------|
|-4-4-4-4-4-4-4-4---|-5-5-5-5-5-5-5-5-|-5-5-5-5-5-5-5-5-----|
|-2-2-2-2-2-2-2-2---|-3-3-3-3-3-3-3-3-|-3-3-3-3-3-3-3-3-----|
|-------------------|-----------------|---------------------|
|
| E E E E E E E S S   E E E E E E E E   E E E E E E E S S
|-------------------|-----------------|---------------------|
|---0-----3-1---0h1p|=0-----0-----3---|---0-----3-1---0h1p==|
|-2---4-------------|-----2---0-2-----|-2---4---------------|
|-------4-----------|---4-----------4-|-------4-------------|
|-------------------|-----------------|---------------------|
|-------------------|-----------------|---------------------|


  A5                                    B5
  PM--------------------------------------------------|
  E E E E E E E E   E E E E E E E E     E E E E E E E E
|-----------------|-------------------|-----------------|
|-----------------|-------------------|-----------------|
|-----------------|-------------------|-----------------|
|-----------------|-------------------|-4-4-4-4-4-4-4-4-|
|-7-7-7-7-7-7-7-7-|-7-7-7-7-7-7-7-7---|-2-2-2-2-2-2-2-2-|
|-5-5-5-5-5-5-5-5-|-5-5-5-5-5-5-5-5---|-----------------|
|
| E E E E E E E E   E E E E E E E S S   E E E E E E E E
|-----------------|-------------------|-----------------|
|-0-----0-----3---|---0-----3-1---0h1p|=0-----0-----3---|
|-----2---0-2-----|-2---4-------------|-----2---0-2-----|
|---4-----------4-|-------4-----------|---4-----------4-|
|-----------------|-------------------|-----------------|
|-----------------|-------------------|-----------------|


                      C5
  PM--------------------------------------------------|
  E E E E E E E E     E E E E E E E E   E E E E E E E E
|-------------------|-----------------|---------------------|
|-------------------|-----------------|---------------------|
|-------------------|-----------------|---------------------|
|-4-4-4-4-4-4-4-4---|-5-5-5-5-5-5-5-5-|-5-5-5-5-5-5-5-5-----|
|-2-2-2-2-2-2-2-2---|-3-3-3-3-3-3-3-3-|-3-3-3-3-3-3-3-3-----|
|-------------------|-----------------|---------------------|
|
| E E E E E E E S S   E E E E E E E E   E E E E E E E S S
|-------------------|-----------------|---------------------|
|---0-----3-1---0h1p|=0-----0-----3---|---0-----3-1---0h1p==|
|-2---4-------------|-----2---0-2-----|-2---4---------------|
|-------4-----------|---4-----------4-|-------4-------------|
|-------------------|-----------------|---------------------|
|-------------------|-----------------|---------------------|


  A5                                    B5
  PM------------------------------|       PM----------|
  E E E E E E E E   E E E E E E E E     E E E E E E E E
|-----------------|-------------------|-----------------|
|-----------------|-------------------|-----------------|
|-----------------|-------------------|-----------------|
|-----------------|-------------------|-4-4-4-4-4-4-4-4-|
|-7-7-7-7-7-7-7-7-|-7-7-7-7-7-7-7-7---|-2-2-2-2-2-2-2-2-|
|-5-5-5-5-5-5-5-5-|-5-5-5-5-5-5-5-5---|-----------------|
|
| E E E E E E E E   E E E E E E E S S   E E E E E E E E
|-----------------|-------------------|-----------------|
|-0-----0-----3---|---0-----3-1---0h1p|=0-----0-----3---|
|-----2---0-2-----|-2---4-------------|-----2---0-2-----|
|---4-----------4-|-------4-----------|---4-----------4-|
|-----------------|-------------------|-----------------|
|-----------------|-------------------|-----------------|


                      C5                              A5
  PM------------|
  E E E E E E E E     E E E E E E E E   E E E E E E E E
|-------------------|-----------------|---------------------||
|-------------------|-----------------|---------------------||
|-------------------|-----------------|---------------------||
|-4-4-4-4-4-4-4-4---|-5-5-5-5-5-5-5-5-|-5-5-5-5-5-5-x-------||
|-2-2-2-2-2-2-2-2---|-3-3-3-3-3-3-3-3-|-3-3-3-3-3-3-x-7-----||
|-------------------|-----------------|---------------5-----||
|
| E E E E E E E S S   E E E E E E E E   E E E E E E E S S
|-------------------|-----------------|---------------------||
|---0-----3-1---0h1p|=0-----0-----3---|---0-----3-1---0h1p==||
|-2---4-------------|-----2---0-2-----|-2---4---------------||
|-------4-----------|---4-----------4-|-------4-------------||
|-------------------|-----------------|---------------------||
|-------------------|-----------------|---------------------||


   Guitar Break
    Faster Q=142
               B5 C5 G5    C5   B5  E5   F5
    +E  E Q  E  E  E E   E  E E E E  E E E
||---------------------|-------------------|
||o--------------------|-------------------|
||---------------------|-------------------|
||---------------------|----5---4----------|
||o-(7)-7-7--x-10--9-5-|----3---2----2---3-|
||--(5)-5-5--x--8--7-3-|-------------0---1-|
|
|    ~~~
|    H       E  E  E E   E  E E E E  E E E
||---------------------|-------------------|
||o--0-----------------|-------------------|
||-------------------7-|-------------------|
||--------------9-10---|---10---9--------7-|
||o--------------------|------------10-----|
||---------------------|-------------------|


                                                                        A5
        PM------------------------------------------------------------|
  +E    S S S S  S  S S S S S S S  S  S    S  S S S S S S S S S S S S S E  3x
|---------------------------------------|----------------------------------||
|---------------------------------------|---------------------------------o||
|---------------------------------------|----------------------------------||
|---------------------------------------|----------------------------------||
|-(3)---3-3-3----3--3-3---3-3-3----3--3-|--3----3-3-3---3-3-3---3-3-3---7-o||
|-(1)---1-1-1----1--1-1---1-1-1----1--1-|--1----1-1-1---1-1-1---1-1-1---5--||
|
|                ~~~~~~~~~~~~~~~~~~~~~~~~~~~~~
| +Q.           +H                +E      +W                               3x
|---------------------------------------|----------------------------------||
|---------------------------------------|---------------------------------o||
|---------------------------------------|----------------------------------||
|-(7)b9r========(7)---------------(7)---|-(7)------------------------------||
|---------------------------------------|---------------------------------o||
|---------------------------------------|----------------------------------||


  A5       B5 C5 G5    C5   B5  E5   N.C.
  E E Q  E  E  E E   E  E E E E  E E E   +E    E E  E  E E E  E
|------------------|-------------------|-------------------------|
|------------------|-------------------|-------------------------|
|------------------|-------------------|-------------------------|
|------------------|----5---4----------|-------------------------|
|-7-7-7--x-10--9-5-|----3---2----2-----|---------5--3--2---------|
|-5-5-5--x--8--7-3-|-------------0---1-|-(1)---1---------5-3--1--|
|
|                                                   ~~~~~~~~~~~~~~
| H      E  E  E E   E  E E E E  E E E   +Q.       +H        +E
|------------------|-------------------|-------------------------|
|------------------|-------------------|-------------------------|
|----------------7-|-------------------|-------------------------|
|-7---------9-10---|---10---9--------7-|-(7)b9r====(7)-------(7)-|
|------------------|------------10-----|-------------------------|
|------------------|-------------------|-------------------------|


                                           F5
                                                               Gtr III
                                           PM--------------|    ~~
  +E   E E E E E E E   +E    E E  E  E E E E   E   E E E E E E  E
|--------------------|-----------------------|---------------------|
|--------------------|-----------------------|---------------------|
|--------------------|-----------------------|---------------------|
|--------------------|-----------------------|-----------------/5--|
|--------5-3-2-------|---------5--3--2-----3-|-----3---3---3-------|
|-(1)--1-------5-3-1-|-(1)---1---------5-3-1-|-----1---1---1-------|
|
|                                                              Gtr I
|~~~~~~                           ~~~                           ~~
| +H..             E   +Q.       +H        E   H..              E
|--------------------|-----------------------|---------------------|
|--------------------|-----------------------|---------------------|
|--------------------|-----------------------|-----------------/7--|
|-(7)--------------7-|-(7)b9r====(7)---------|---------------------|
|--------------------|-----------------------|---------------------|
|--------------------|-----------------------|---------------------|


 Guitar Solo
  N.C.
   ~~~
  +E  E E  Q  E E  E    +E  E E E E  E E  E
|--------------------|----------------------|
|--------------------|----------------------|
|-----4----7---------|----------------------|
|-(5)---5-------7----|--------5-7-5---------|
|-------------5----3-|--(3)-3--------7-5----|
|--------------------|--------------------3-|
|
|  ~~~
| +E  E E  Q  E E  E    +E  E E E E  E E  E
|--------------------|----------------------|
|-----8---10--7-8----|----------------------|
|-(7)---7------------|------0-7-9-7---------|
|-----------------10-|-(10)---------10-9-10-|
|--------------------|----------------------|
|--------------------|----------------------|


                                          ~~
   +E  E E Q   E E E   +E   E E E  E E E  E
|--------------------|----------------------|
|--------------------|----------------------|
|--------------------|----------------------|
|--------7-5---4-----|-------------------/5-|
|------5---------7-5-|-(5)--3-2-3--0-2------|
|--(3)---------------|----------------------|
|
|                                         ~~
|  +E  E E Q   E E E   +E   E E E  E E E  E
|--------------------|----------------------|
|--------------------|----------------------|
|--------------------|-------------------/7-|
|-(10)-9-7-9--10-9-7-|-(7)----7-9-----------|
|--------------------|-----10-----10-9------|
|--------------------|----------------------|


   ~~~
  +E  E E  Q  E E  E    +E  E E E E  E E  E
|--------------------|----------------------|
|--------------------|----------------------|
|-----4----7---------|----------------------|
|-(5)---5-------7----|--------5-7-5---------|
|-------------5----3-|--(3)-3--------7-5----|
|--------------------|--------------------3-|
|
|  ~~~
| +E  E E  Q  E E  E    +E  E E E E  E E  E
|--------------------|----------------------|
|-----8---10--7-8----|----------------------|
|-(7)---7------------|------0-7-9-7---------|
|-----------------10-|-(10)---------10-9-10-|
|--------------------|----------------------|
|--------------------|----------------------|


                                         D5
                                         Gtrs I, III
   +E  E E Q   E E E   +E   E E E  E E E E
|--------------------|---------------------|
|--------------------|---------------------|
|--------------------|---------------------|
|--------7-5---4-----|-------------------7-|
|------5---------7-5-|-(5)--3-2-3--0-2---5-|
|--(3)---------------|---------------------|
|
|  +E  E E Q   E E E   +E   E E E  E E Q
|--------------------|---------------------|
|--------------------|---------------------|
|--------------------|---------------------|
|-(10)-9-7-9--10-9-7-|-(7)----7-9----------|
|--------------------|-----10-----10-9-----|
|--------------------|---------------------|


 Out-Chorus
  A Tempo Q=138
        PM------------------------------|
  +E  E E  E  E E E E   E E E E  E E E  E
|---------------------|-------------------|
|---------------------|-------------------|
|---------------------|-------------------|
|-(7)-7-7--7--7-7-7-7-|-7-7-7-7--7-7-7--7-|
|-(5)-5-5--5--5-5-5-5-|-5-5-5-5--5-5-5--5-|
|---------------------|-------------------|
|
|         Gtr II
|  Q.      E  E E E E   Q   E E  E E Q
|------------10-8-7---|---------10-8-7---|
|-------------------8-|-8---7-------------|
|---------/7----------|-------7-----------|
|---------------------|-------------------|
|---------------------|-------------------|
|---------------------|-------------------|


  E5                 C5
     PM---------------------------------|
  E  E E E E E E E    E  E E E E E E     E
|------------------|-----------------------|
|------------------|-----------------------|
|------------------|-----------------------|
|-9--9-9-9-9-9-9-9-|--5--5-5-5-5-5-5-----5-|
|-7--7-7-7-7-7-7-7-|--3--3-3-3-3-3-3-----3-|
|------------------|-----------------------|
|
| ~~
| Q.     H       E   +Q.     H        a  E
|------------------|-----------------------|
|------------------|-----------------10h12-|
|-9------7---------|---------7-------------|
|----------------9-|-(9)-------------------|
|------------------|-----------------------|
|------------------|-----------------------|


  D5
      PM------------------------------|
   E  E E E E E E E   E E   E E E E E E
|-------------------|-------------------|
|-------------------|-------------------|
|-------------------|-------------------|
|--7--7-7-7-7-7-7-7-|-7-7---7-7-7-7-7-7-|
|--5--5-5-5-5-5-5-5-|-5-5---5-5-5-5-5-5-|
|-------------------|-------------------|
|
|  ~~~
|  Q.     Q   E E E   E E a E E Q   Q
|-------------------|-------------------|
|-10----------------|-------------------|
|---------7-----7---|-7---7h9---7-------|
|-------------9-----|---9-----------9---|
|-------------------|-------------------|
|-------------------|-------------------|


  E5                 C5
  PM------------------------------------|
  E  E E E E E E E    E  E E E E E E     E
|------------------|-----------------------|
|------------------|-----------------------|
|------------------|-----------------------|
|-9--9-9-9-9-9-9-9-|--5--5-5-5-5-5-5-----5-|
|-7--7-7-7-7-7-7-7-|--3--3-3-3-3-3-3-----3-|
|------------------|-----------------------|
|
| ~~
| Q.     H       E   +Q.     H        a  E
|------------------|-----------------------|
|------------------|-----------------10h12-|
|-9------7---------|---------7-------------|
|----------------9-|-(9)-------------------|
|------------------|-----------------------|
|------------------|-----------------------|


  D5
      PM--------------------------------|
   E  E E  E  E E E E   E E E E  E E E  E
|---------------------|-------------------|
|---------------------|-------------------|
|---------------------|-------------------|
|--7--7-7--7--7-7-7-7-|-7-7-7-7--7-7-7--7-|
|--5--5-5--5--5-5-5-5-|-5-5-5-5--5-5-5--5-|
|---------------------|-------------------|
|
|  Q.      E  E E E E   Q   E E  E E Q
|------------10-8-7---|---------10-8-7---|
|-10----------------8-|-8---7-------------|
|---------/7----------|-------7-----------|
|---------------------|-------------------|
|---------------------|-------------------|
|---------------------|-------------------|


  E5                 C5
     PM----------|       PM-------------|
  E  E E E E E E E    E  E E E E E E     E
|------------------|-----------------------|
|------------------|-----------------------|
|------------------|-----------------------|
|-9--9-9-9-9-9-9-9-|--5--5-5-5-5-5-5-----5-|
|-7--7-7-7-7-7-7-7-|--3--3-3-3-3-3-3-----3-|
|------------------|-----------------------|
|
| ~~
| Q.     H       E   +Q.     H        a  E
|------------------|-----------------------|
|------------------|-----------------10h12-|
|-9------7---------|---------7-------------|
|----------------9-|-(9)-------------------|
|------------------|-----------------------|
|------------------|-----------------------|


  D5
      PM------------------------------|
   E  E E E E E E E   E E   E E E E E E
|-------------------|-------------------|
|-------------------|-------------------|
|-------------------|-------------------|
|--7--7-7-7-7-7-7-7-|-7-7---7-7-7-7-7-7-|
|--5--5-5-5-5-5-5-5-|-5-5---5-5-5-5-5-5-|
|-------------------|-------------------|
|
|  ~~~
|  Q.     Q   E E E   E E a E E Q   Q
|-------------------|-------------------|
|-10----------------|-------------------|
|---------7-----7---|-7---7h9---7-------|
|-------------9-----|---9-----------9---|
|-------------------|-------------------|
|-------------------|-------------------|


  E5                 C5
     PM----------|       PM-------------|
  E  E E E E E E E    E  E E E E E E     E
|------------------|--------------------------|
|------------------|--------------------------|
|------------------|--------------------------|
|-9--9-9-9-9-9-9-9-|--5--5-5-5-5-5-5-----5----|
|-7--7-7-7-7-7-7-7-|--3--3-3-3-3-3-3-----3----|
|------------------|--------------------------|
|
| ~~
| Q.     H       E   +Q.     H        a  S  S
|------------------|--------------------------|
|------------------|-----------------10h12p10-|
|-9------7---------|---------7----------------|
|----------------9-|-(9)----------------------|
|------------------|--------------------------|
|------------------|--------------------------|


 Outro
  G5         E5         C5
  W          W          E E E E E E E E   E E E E E E E E
|----------|----------|-----------------|-----------------|
|----------|----------|-----------------|-----------------|
|----------|----------|-----------------|-----------------|
|----------|----------|-5-5-5-5-5-5-5-5-|-5-5-5-5-5-5-5-5-|
|-5--------|-2--------|-3-3-3-3-3-3-3-3-|-3-3-3-3-3-3-3-3-|
|-3--------|-0--------|-----------------|-----------------|
|
| ~~~~~~~~~~~~~
| W          W          E E E E E E E E   E E E E E E Q
|----------|----------|-----------------|-----------------|
|-8--------|----------|-----------------|-----------------|
|----------|-9--------|-----------------|-----------------|
|----------|----------|-5-5-7-x-5-7-x-5-|-x-5-8-7-5-7-----|
|----------|----------|-3-3-3-x-3-3-x-3-|-x-3-------------|
|----------|----------|-----------------|-----------------|


    G5                E5                C5
    E E E E E E E E   E E E E E E E E   E E E E E E E E    E  E E E E E E E
||------------------|-----------------|-----------------|---------------------||
||o-----------------|-----------------|-----------------|--------------------o||
||------------------|-----------------|-----------------|---------------------||
||------------------|-----------------|-5-5-5-5-5-5-5-5-|--5--5-5-5-5-5-5-5---||
||o-5-5-5-5-5-5-5-5-|-2-2-2-2-2-2-2-2-|-3-3-3-3-3-3-3-3-|--3--3-3-3-3-3-3-3--o||
||--3-3-3-3-3-3-3-3-|-0-0-0-0-0-0-0-0-|-----------------|---------------------||
|
|   E E E E E E E E   E E E E E E E E   E E E E E E E E   +E  E E E E E Q
||------------------|-----------------|-----------------|---------------------||
||o-----------------|-----------------|-----------------|--------------------o||
||------------------|-----------------|-----------------|---------------------||
||------------------|-----------------|-5-5-7-x-5-7-x-5-|-(5)-5-8-7-5-7-------||
||o-5-5-5-5-5-5-5-5-|-2-2-2-2-2-2-2-2-|-3-3-3-x-3-3-x-3-|-(3)-3--------------o||
||--3-3-3-3-3-3-3-3-|-0-0-0-0-0-0-0-0-|-----------------|---------------------||


  A5                                     E5         D5
  E E  E E E E E E    E E E E E E  E E   W          E E E E E E E E
|------------------|-------------------|----------|-----------------|
|------------------|-------------------|----------|-----------------|
|------------------|-------------------|----------|-----------------|
|------------------|-------------------|-9--------|-7-7-7-7-7-7-7-7-|
|-7-7--7-7-7-7-7-7-|--7-7-7-7-7-7--7-7-|-7--------|-5-5-5-5-5-5-5-5-|
|-5-5--5-5-5-5-5-5-|--5-5-5-5-5-5--5-5-|----------|-----------------|
|
| E E  E E E E E E    E E E E E E  E E   W          E E E E E E E E
|------------------|-------------------|----------|-----------------|
|------------------|-------------------|----------|-----------------|
|----------9-------|------9------------|----------|-----------------|
|-7-9-10-7---9-7-9-|-10-7---9-7-9-10-7-|-9--------|-7-7-7-7-7-7-7-7-|
|------------------|-------------------|-7--------|-5-5-5-5-5-5-5-5-|
|------------------|-------------------|----------|-----------------|


  C5
   E  E  E  E  E  E  E  E    E  E  E  E  E  E  E E
|-------------------------|------------------------|
|-------------------------|------------------------|
|-------------------------|------------------------|
|-------------------------|------------------------|
|-10-10-10-10-10-10-10-10-|-10-10-10-10-10-10-10-0-|
|--8--8--8--8--8--8--8--8-|--8--8--8--8--8--8--8-0-|
|
|  E  E  E  E  E  E  E  E    E  E  E  E  E  E  E E
|-------------------------|------------------------|
|-------------------------|------------------------|
|-------------------------|------------------------|
|-------------------------|------------------------|
|-10-10-10-10-10-10-10-10-|-10-10-10-10-10-10-10-0-|
|--8--8--8--8--8--8--8--8-|--8--8--8--8--8--8--8-0-|


    G5                E5                C5
    E E E E E E E E   E E E E E E E E   E E E E E E E E   E E E E E E E E   3x
||------------------|-----------------|-----------------|-------------------||
||o-----------------|-----------------|-----------------|------------------o||
||------------------|-----------------|-----------------|-------------------||
||------------------|-----------------|-5-5-5-5-5-5-5-5-|-5-5-5-5-5-5-5-5---||
||o-5-5-5-5-5-5-5-5-|-2-2-2-2-2-2-2-2-|-3-3-3-3-3-3-3-3-|-3-3-3-3-3-3-3-3--o||
||--3-3-3-3-3-3-3-3-|-0-0-0-0-0-0-0-0-|-----------------|-------------------||
|
|   E E E E E E E E   E E E E E E E E   E E E E E E E E   E E E E E E Q     3x
||------------------|-----------------|-----------------|-------------------||
||o-----------------|-----------------|-----------------|------------------o||
||------------------|-----------------|-----------------|-------------------||
||------------------|-----------------|-5-5-7-x-5-7-x-5-|-x-5-8-7-5-7-------||
||o-5-5-5-5-5-5-5-5-|-2-2-2-2-2-2-2-2-|-3-3-3-x-3-3-x-3-|-x-3--------------o||
||--3-3-3-3-3-3-3-3-|-0-0-0-0-0-0-0-0-|-----------------|-------------------||


  A5                                     E5                 D5
  E E  E E E E E E    E E E E E E  E E   E E E E E E E  E   E E E E E E E E
|------------------|-------------------|------------------|-----------------|
|------------------|-------------------|------------------|-----------------|
|------------------|-------------------|------------------|-----------------|
|------------------|-------------------|-9-9-9-9-9-9-9--9-|-7-7-7-7-7-7-7---|
|-7-7--7-7-7-7-7-7-|--7-7-7-7-7-7--7-7-|-7-7-7-7-7-7-7--7-|-5-5-5-5-5-5-5-0-|
|-5-5--5-5-5-5-5-5-|--5-5-5-5-5-5--5-5-|------------------|-----------------|
|
| E E  E E E E E E    E E E E E E  E E   E E E E E E Q      E E E E E E Q
|------------------|-------------------|------------------|-----------------|
|------------------|-------------------|------------------|-----------------|
|----------9-------|------9------------|---9-----9--------|---7-----7-------|
|-7-9-10-7---9-7-9-|-10-7---9-7-9-10-7-|-----9-----9------|-----7-----7-----|
|------------------|-------------------|-7-----7-----7---|-5-----5-----5---|
|------------------|-------------------|------------------|-----------------|


  C5
   W           +W
|-----------|---------*|
|-----------|---------*|
|-----------|---------*|
|-----------|---------*|
|-10--------|-(10)----*|
|--8--------|--(8)----*|
|
|  W           +W
|-----------|---------*|
|-----------|---------*|
|-----------|---------*|
|-----------|---------*|
|-10--------|-(10)----*|
|--8--------|--(8)----*|


Duration Legend
---------------
W - whole; H - half; Q - quarter; E - 8th; S - 16th; T - 32nd; X - 64th; a - acciaccatura
+ - note tied to previous; . - note dotted; .. - note double dotted
Uncapitalized letters represent notes that are staccato (1/2 duration)
Irregular groupings are notated above the duration line
Duration letters will always appear directly above the note/fret number it represents the
duration for.  Duration letters with no fret number below them represent rests.  Multi-
bar rests are notated in the form Wxn, where n is the number of bars to rest for.  Low
melody durations appear below the staff

Tablature Legend
----------------
 h   - hammer-on
 p   - pull-off
 b   - bend
 pb  - pre-bend
 r   - bend release (if no number after the r, then release immediately)
 /  - slide into or out of (from/to nowhere)
 s   - legato slide
 S   - shift slide
  - natural harmonic
[n]  - artificial harmonic
n(n) - tapped harmonic
 ~   - vibrato
 tr  - trill
 T   - tap
 TP  - trem. picking
 PM  - palm muting
n/  - tremolo bar dip; n = amount to dip
 n  - tremolo bar down
 n/  - tremolo bar up
/n  - tremolo bar inverted dip
 =   - hold bend; also acts as connecting device for hammers/pulls
   - volume swell (louder/softer)
 x   - on rhythm slash represents muted slash
 o   - on rhythm slash represents single note slash

Misc Legend
-----------
 |  - bar
||  - double bar
||o - repeat start
o|| - repeat end
*|  - double bar (ending)
 :  - bar (freetime)
 $  - Segno
 amp;  - Coda
Tempo markers -  = BPM(8/16=s8/s16), where s8 = swing 8ths, s16 = swing 16ths


Добавлено: 07.01.2014
Другие материалы по этой песне:

Страница создана 17.03.2012
http://primanota.ru/coheed-and-cambria/the-velourium-camper-i-faint-of-hearts-chords.htm
Привет, Гость.
Предлагаем пройти революционный курс по гитаре.
Подарок от PrimaNota.Ru, забирай!