PrimaNota.ru - самый крупный в мире бесплатный архив песенных текстов, аккордов, табулатур и нот


Coheed & Cambria - The Velorium Camper Iii Al The Killer - таба, видео

Регистрация Запомнить меня
Войти через:  Facebook Google Twitter Vk Yandex Mail.ru

Coheed & Cambria - The Velorium Camper Iii Al The Killer - таба, видео

Печатать
Просмотров: 121
Уроки эстрадного вокала в Санкт-Петербурге
This is my first tab, but im pretty positive that what i have here is correct. This is 
for Rhythm Guitar, i do not know the tab for the lead guitar, sorry! Any problems, look 
another tab!

The Velorium Camper III: AL THE KILLER
by Coheed and Cambria


Key:
p  - pull-off
~  - let ring
/  - slide
...- repeat chord


Intro/Verse Riff:
/----------------------------------------------------/
/----------------------------------------------------/
/----------------------------------------------------/
/-------4-5-0-------------------5-4-0----------------/ 2x
/-4-4-4-2-3-0-5-5-5-5-5-0-5-5-5-3-2-0-4-4-4-4-4-0----/
/-2-2-2-------3-3-3-3-3-0-3-3-3-------2-2-2-2-2-0----/

2nd ending into 1st verse:
/---------------------/
/---------------------/
/---------------------/
/-5-4-0---------------/
/-3-2-0--4---4---4----/
/--------2---2---2----/

Play Intro/Verse Riff 8x

Fill 1:
/-------------------/
/-------------------/
/-------------------/
/---4-----5---3/5~--/
/-----4-------------/
/-2-----2---3-------/

Pre-Chorus:
/-----------------------------------------------------------/
/-5--5--5-5-5-5-5--5--5-5-5-5-5--5--5-5-5-5-5-5-5-6-6-6-7-7-/
/-4--4--4-0-4-0-4--4--4-0-4-0-4--4--4-0-4-0-4-4-4-5-5-5-6-6-/
/-----------------------------------------------------------/
/-----------------------------------------------------------/
/-----------------------------------------------------------/

Chorus:
/----------------------------------------------------------------------/
/----------------------------------------------------------------------/
/-4444444444444444-7777777777777777------------------------------------/
/-4444444444444444-7777777777777777-5555555555555555---99--99--99764p0-/ 2x
/-2222222222222222-5555555555555555-5555555555555555-997799777777542p0-/
/-----------------------------------3333333333333333-77--77--55--------/


Intro/Verse Riff w/ 2nd Ending

2nd Verse

Fill 1

Pre-Chorus

Chorus 2x

Bridge:
/--------------------------------------------------------------------/
/--------------------------------------------------------------------/
/-11...............................----------------------------------/ 2x
/-11...............................-7...............................-/
/--9...............................-7...............................-/
/-----------------------------------5...............................-/


Intro/Verse Riff w/ 2nd Ending 3x

Intro/Verse Riff w/ Fill 1

Pre-Chorus

Chorus 4x

End with:
/---------------/
/---------------/
/-4~~-----------/
/-4~~-----------/
/-2~~-----------/
/---------------/

Hope this satisfies you, i'm pretty sure this is the best way to play it.

Enjoy!
Добавлено: 18.07.2012
Другие материалы по этой песне:

Страница создана 06.03.2012
http://primanota.ru/coheed-and-cambria/the-velorium-camper-iii-al-the-killer-chords.htm
Привет, Гость.
Предлагаем пройти революционный курс по гитаре.
Подарок от PrimaNota.Ru, забирай!