PrimaNota.ru - самый крупный в мире бесплатный архив песенных текстов, аккордов, табулатур и нот


Coheed & Cambria - The Reaping - таба, видео

Регистрация Запомнить меня
Войти через:  Facebook Google Twitter Vk Yandex Mail.ru

Coheed & Cambria - The Reaping - таба, видео

Печатать
Просмотров: 154
Уроки эстрадного вокала в Санкт-Петербурге
This is the intro to the album, just picked it out, so figured I'd post it while you're 
waiting on tabs for the other songs. It's pretty simple, and the same figure repeated 
the intro.

E  :------------|------------|------------|------------|------------|
B  :------------|------------|------------|------------|------------|
G  :------------|0-----------|------------|0-----------|--------7---|
D  :--------0---|----0-------|--------0---|----0-------|------5-----|
A  :----8-------|--------8---|----8-------|--------8---|0-h3--------|
D  :0-----------|------------|0-----------|------------|------------|

E  :-------------|------------|-------------|
B  :-------------|------------|-------------|
G  :7------------|--------0---|0------------|
D  :----5--------|------3-----|----3--------|
A  :--------3-\--|0-h1--------|--------1-/--|
D  :-------------|------------|-------------|

And there you have it.
Добавлено: 07.07.2012
Другие материалы по этой песне:

Страница создана 26.03.2012
http://primanota.ru/coheed-and-cambria/the-reaping-chords.htm
Привет, Гость.
Предлагаем пройти революционный курс по гитаре.
Подарок от PrimaNota.Ru, забирай!