PrimaNota.ru - самый крупный в мире бесплатный архив песенных текстов, аккордов, табулатур и нот


Coheed & Cambria - The Lying Lies & Dirty Secrets Of Miss Erica Court - бас-таба, видео

Регистрация Запомнить меня
Войти через:  Facebook Google Twitter Vk Yandex Mail.ru

Coheed & Cambria - The Lying Lies & Dirty Secrets Of Miss Erica Court - бас-таба, видео

Печатать
Просмотров: 125
Уроки эстрадного вокала в Санкт-Петербурге
Авторы музыки: Coheed and Cambria
Авторы текста: Claudio Sanchez
Gtr I (Eb Ab Db Gb) - 'elec.'

 Intro
  Q=168
 4/4
            Gtr I
  H.      E E   E E H.        H.      E E   E E H.        Q.   E E E E E
|-------------|-------------|-------------|-------------|----------------||
|-------------|-------------|-------------|-------------|----------------||
|-------------|-------------|-------------|-------------|------2s4s2-5h7-||
|-----------5-|-5-5---------|-----------5-|-5-5---------|----------------||


 1st Verse
  E E E E E E E E   E E E E E E E E   E E E E E E E E   E E E E E E E E
|-----------------|-----------------|-----------------|------------------|
|-----------------|-----------------|-----------------|------------------|
|---------------4-|-4-4---2-2-2-----|---------------4-|-4-4---2-2-2------|
|-5-5---5-5-5-----|---------------5-|-5-5---5-5-5-----|---------------5--|


  E E E E E E E E   E E E E E E E E   E E E E E E E E   E E E E E E E E
|-----------------|-----------------|-----------------|------------------|
|-----------------|-----------------|-----------------|------------------|
|---------------4-|-4-4---2-2-2-----|---------------4-|-4-4---2s4p0-5h7--|
|-5-5---5-5-5-----|---------------5-|-5-5---5-5-5-----|------------------|


  E E E E E E E E   E E E E E E E E   E E E E E E E E   E E E E E E E E
|-----------------|-----------------|-----------------|------------------|
|-----------------|-----------------|-----------------|------------------|
|---------------4-|-4-4---2-2-2-----|---------------4-|-4-4---2-2-2------|
|-5-5---5-5-5-----|---------------5-|-5-5---5-5-5-----|---------------5--|


  E E E E E E E E   E E E E E E E E   E E E E E E E E   E E E E E E E E
|-----------------|-----------------|-----------------|------------------|
|-----------------|-----------------|-----------------|------------------|
|---------------4-|-4-4---2-2-2-----|---------------4-|-4-4---2-4-2-0-2--|
|-5-5---5-5-5-----|---------------5-|-5-5---5-5-5-----|------------------|


  E E E a E E E E E   E E E E E E E E   E E E E E E E E   E E E E E E E E
|-------------------|-----------------|-----------------|-----------------|
|-------------------|-----------------|-----------------|-----------------|
|-------------------|-----------------|-----------------|---------------7-|
|-5-5---4h5-5-5---5-|-5-5---5-5-5---5-|-5-5---5-5-5---5-|-5-5---5-5-5-----|


  E E Q  E E Q    E E Q  E E E E   E E E E E E E E   E E E E E E  Q
|---------------|----------------|-----------------|-------------------||
|---------------|----------------|-----------------|-------------------||
|-7-7-----------|----------------|-----------------|-------------------||
|-----5--5-5-5--|-5-5-5--5-5-0-2-|-0-0---2-0-0---2-|-0-0---2-0-0-12\---||


 1st Pre-chorus
  E E E  E E E E E   Q  E E E E E E   E E E E E E E E   E E E E E E E E
|------------------|----------------|-----------------|------------------|
|------------------|----------------|-----------------|------------------|
|-------/7---6---6-|-4----6-7-------|-----------------|------------------|
|-4-4----------7---|------------7-9-|-7-7---7-7-7---5-|-5-5---5-5-5---5--|


  E E E  E E E E E   Q  E E E E E E   E E E E E E E E   E E E E E E E E
|------------------|----------------|-----------------|------------------||
|------------------|----------------|-----------------|---------7-7------||
|-------/7---6---6-|-4----6-7-------|-----------------|-----7-7-----7----||
|-4-4----------7---|------------7-9-|-7-7---7-7-7---5-|-5-5-----------0--||


 1st Chorus
  E E E E E E E E   E E E E E E E E   E E E E E E E E   E E E E E E E E
|-----------------|-----------------|-----------------|------------------|
|-----------------|-----------------|-----------------|------------------|
|-4-4---4-4-4---4-|-4-4---4-4-4-----|-----------------|-----7---6---7----|
|-----------------|---------------4-|-4-4---4-4-4---4-|-4-4---4---4---4--|


  E E E E E E E E   E E E E E E E E   E E E E E E E E   E E E E E E E E
|-----------------|-----------------|-----------------|------------------|
|-----------------|-----------------|-----9-------6---|-----9-7-----4-4--|
|-----------------|---------------7-|-7-7---7-0-7---7-|-6-6-------7------|
|-5-5---5-5-5---5-|-5-5---5-5-5-5---|-----------------|---------4--------|


  E E E E E E E E   E E E  E E E E E   E E E E E E E E   E E E E E E E E
|-----------------|------------------|-----------------|------------------|
|-----------------|------------------|-----------------|------------------|
|-4-4---4-4-4---4-|-4-4---/9-9-7-6-7-|-----------------|---------7---6----|
|-----------------|------------------|-4-4---4-4-4---4-|-4-4---4---4---4--|


  E E E E E E E E   E E E E E E E E   E E E E E E E E   E E E E E E Q
|-----------------|-----------------|-----------------|-----------------|
|-----------------|-----------------|-----9-------6---|-----9-7-6-7-7---|
|-----------------|---------------7-|-7-7---7-0-7---7-|-6-6-------------|
|-5-5---5-5-5---5-|-5-5---5-5-5-5---|-----------------|-----------------|


  E E E E E E E E   E E E E E E E E   E E E E E E E E   E E E E E E E E
|-----------------|-----------------|-----------------|------------------||
|-----------------|-----------------|-----------------|------------------||
|---------------4-|-4-4---2-2-2-----|---------------4-|-4-4---2-2-2------||
|-5-5---5-5-5-----|---------------5-|-5-5---5-5-5-----|---------------5--||


 2nd Verse
  E E E E H      W          E E E E H      E E Q  E E Q
|--------------|----------|--------------|----------------|
|--------------|----------|--------------|----------------|
|---7----------|----------|--------------|------------7---|
|-5---5--------|----------|-5-5-5--------|---5----7-9-----|


  E E E E E E E E   E E E E E E E E   E E E E E E E E   E E E E E E E E
|-----------------|-----------------|-----------------|------------------|
|-----------------|-----------------|-----------------|------------------|
|---------------4-|-4-4---2-2-2-----|---------------4-|-4-4---2-2-2------|
|-5-5---5-5-5-----|---------------5-|-5-5---5-5-5-----|---------------5--|


  E E E E E E E E   E E E E E E E E   E E E E E E E E   E E E E E E E E
|-----------------|-----------------|-----------------|------------------|
|-----------------|-----------------|-----------------|------------------|
|---------------4-|-4-4---2s4p0-5h7-|---------------4-|-4-4---2-2-2------|
|-5-5---5-5-5-----|-----------------|-5-5---5-5-5-----|---------------5--|


  E E E E E E E E   E E E E E E E E   E E E E E E E E   E E E E E E E E
|-----------------|-----------------|-----------------|------------------|
|-----------------|-----------------|-----------------|------------------|
|---------------4-|-4-4---2-2-2-----|---------------4-|-4-4---2-2-2------|
|-5-5---5-5-5-----|---------------5-|-5-5---5-5-5-----|---------------5--|


  E E E E E E E E   E E E E E E E E   E E E E E E E E   E E E E E E E E
|-----------------|-----------------|-----------------|------------------|
|-----------------|-----------------|-----------------|------------------|
|-----------------|-----------------|-----------------|---------------7--|
|-5-5---5-5-5---5-|-5-5---5-5-5---5-|-5-5---5-5-5---5-|-5-5---5-5-5------|


  E E Q  E E Q    E E Q  E E E E   E E E E E E E E   E E E E E E  Q
|---------------|----------------|-----------------|-------------------||
|---------------|----------------|-----------------|-------------------||
|-7-7-----------|----------------|-----------------|-------------------||
|-----5--5-5-5--|-5-5-5--5-5-0-2-|-0-0---2-0-0---2-|-0-0---2-0-0-12\---||


 2nd Pre-chorus
  E E E  E E E E E   Q  E E E E E E   E E E E E E E E   E E E E E E  E E
|------------------|----------------|-----------------|-------------------|
|------------------|----------------|-----------------|-------------------|
|-------/7---6---6-|-4----6-7-------|-----------------|-------------------|
|-4-4----------7---|------------7-9-|-7-7---7-7-7---5-|-5-5---5-5-5-/7s5--|


  E E E  E E E E E   Q  E E E E E E   E E E E E E E E   E E E E E E E E
|------------------|----------------|-----------------|------------------||
|------------------|----------------|-----------------|---------7-7------||
|-------/7---6---6-|-4----6-7-------|-----------------|-----7-7-----7----||
|-4-4----------7---|------------7-9-|-7-7---7-7-7---5-|-5-5-----------0--||


 2nd Chorus
  E E E E E E E E   E E E E E E E E   E E E E E E E E   E E E E E E E E
|-----------------|-----------------|-----------------|------------------|
|-----------------|-----------------|-----------------|------------------|
|-4-4---4-4-4---4-|-4-4---4-4-4-4s6-|-----------------|-----7---6---7----|
|-----------------|-----------------|-4-4---4-4-4---4-|-4-4---4---4---4--|


  E E E E E E E E   E E E E E E E E   E E E E E E E E   E E E E E E E E
|-----------------|-----------------|-----------------|------------------|
|-----------------|-----------------|-----9-------6---|-----9-7-----4-4--|
|-----------------|---------------7-|-7-7---7-0-7---7-|-6-6-------7------|
|-5-5---5-5-5---5-|-5-5---5-5-5-5---|-----------------|---------4--------|


  E E E E E E E E   E E E  E E E E E   E E E E E E E E   E E E E E E E E
|-----------------|------------------|-----------------|------------------|
|-----------------|------------------|-----------------|------------------|
|-4-4---4-4-4---4-|-4-4---/9-9-7-6-7-|-----------------|-----7---6---7----|
|-----------------|------------------|-4-4---4-4-4---4-|-4-4---4---4---4--|


  E E E E E E E E   E E E E E E E E   E E E E E E E E   E E E E E E E E
|-----------------|-----------------|-----------------|------------------||
|-----------------|-----------------|-----9-------6---|-----9-7-----4-4--||
|-----------------|---------------7-|-7-7---7-0-7---7-|-6-6-------7------||
|-5-5---5-5-5---5-|-5-5---5-5-5-5---|-----------------|---------4--------||


 Bridge
  E E E E E E E E   E E E E E E E E   E E E E E E E E   E E E E E E E E
|-----------------|-----------------|-----------------|------------------|
|-----------------|-----------------|-----------------|------------------|
|-4-4---4-4-4---4-|-4-4---4-4-4-----|-----------------|------------------|
|-----------------|---------------4-|-4-4---4-4-4---4-|-4-4---4-4-4---5--|


  E E E E E E E E   E E E E E E E E   E E E E E E E E   E E E E E E E E
|-----------------|-----------------|-----------------|------------------|
|-----------------|-----------------|-----9---7---6---|-----9---6-----7--|
|-----------------|-----------------|-7-7---7---7---7-|-6-6---6---7-9----|
|-5-5---5-5-5---5-|-5-5---5-5-5-5-0-|-----------------|------------------|


  E E E E E E E E   E E E E E E E E   E E E E E E E E   E E E E E E E E
|-----------------|-----------------|-----------------|------------------|
|-----------------|-----------------|-----------------|------------------|
|-4-4---4-4-4---4-|-4-4---4-4-4-----|-----------------|------------------|
|-----------------|---------------4-|-4-4---4-4-4---4-|-4-4---4-5-4---5--|


  E E E E E E E E   E E E E E E E E   E E E E E E E E   E E E E E E E E
|-----------------|-----------------|-----------------|------------------||
|-----------------|-----------------|-----9---7---6---|-----9-7-6-----7--||
|-----------------|---------------x-|-7-7---7---7---7-|-6-6-------7-9----||
|-5-5---5-5-5---5-|-5-5---5-5-5-5---|-----------------|------------------||


 Outro
  E E E E E E E E   E E E E E E E E   E E E E E E E E   E E E E E E E E
|-----------------|-----------------|-----------------|------------------|
|-----------------|-----------------|-----------------|------------------|
|---------------4-|-4-4---2-2-2-----|---------------4-|-4-4---2-2-2------|
|-5-5---5-5-5-----|---------------5-|-5-5---5-5-5-----|---------------5--|


  E E E E E E E E   E E E E E E E E   E E E E E E E E   E E E  E E E E E
|-----------------|-----------------|-----------------|------------6-4----|
|-----------------|-----------------|-----------------|-------------------|
|---------------4-|-4-4---2s4p0-5h7-|---------------4-|-4-4---/7----------|
|-5-5---5-5-5-----|-----------------|-5-5---5-5-5-----|----------------5--|


  W          +W           +W           +W
|----------|------------|------------|--------*|
|----------|------------|------------|--------*|
|----------|------------|------------|--------*|
|-5--------|-(5)--------|-(5)--------|-(5)----*|


Duration Legend
---------------
W - whole; H - half; Q - quarter; E - 8th; S - 16th; T - 32nd; X - 64th; a - acciaccatura
+ - note tied to previous; . - note dotted; .. - note double dotted
Uncapitalized letters represent notes that are staccato (1/2 duration)
Irregular groupings are notated above the duration line
Duration letters will always appear directly above the note/fret number it represents the
duration for.  Duration letters with no fret number below them represent rests.  Multi-
bar rests are notated in the form Wxn, where n is the number of bars to rest for.  Low
melody durations appear below the staff

Tablature Legend
----------------
 h   - hammer-on
 p   - pull-off
 b   - bend
 pb  - pre-bend
 r   - bend release (if no number after the r, then release immediately)
 /\  - slide into or out of (from/to "nowhere")
 s   - legato slide
 S   - shift slide
  - natural harmonic
[n]  - artificial harmonic
n(n) - tapped harmonic
 ~   - vibrato
 tr  - trill
 T   - tap
 TP  - trem. picking
 PM  - palm muting
\n/  - tremolo bar dip; n = amount to dip
 \n  - tremolo bar down
 n/  - tremolo bar up
/n\  - tremolo bar inverted dip
 =   - hold bend; also acts as connecting device for hammers/pulls
 <>  - volume swell (louder/softer)
 x   - on rhythm slash represents muted slash
 o   - on rhythm slash represents single note slash

Misc Legend
-----------
 |  - bar
||  - double bar
||o - repeat start
o|| - repeat end
*|  - double bar (ending)
 :  - bar (freetime)
 $  - Segno
 &  - Coda
Tempo markers -  = BPM(8/16=s8/s16), where s8 = swing 8ths, s16 = swing 16ths
Добавлено: 23.03.2012
Другие материалы по этой песне:

Страница создана 28.02.2012
http://primanota.ru/coheed-and-cambria/the-lying-lies-and-dirty-secrets-of-miss-erica-court-chords.htm
Привет, Гость.
Предлагаем пройти революционный курс по гитаре.
Подарок от PrimaNota.Ru, забирай!