PrimaNota.ru - самый крупный в мире бесплатный архив песенных текстов, аккордов, табулатур и нот


Coheed & Cambria - The Light And The Glass Live - таба, видео

Регистрация Запомнить меня
Войти через:  Facebook Google Twitter Vk Yandex Mail.ru

Coheed & Cambria - The Light And The Glass Live - таба, видео

Печатать
Просмотров: 96
-------------------------------------------------------------------------------
            The Light And The Glass - Coheed and Cambria
-------------------------------------------------------------------------------
Tabbed by:bablinkstud182
Email:rtb182@yahoo.com
            

this is 99% correct..this is how claudio plays it on the lvie at starland ballroom dvd/cd


Tuning:standard
   intro/verse: repeat as many times as needed
e|---------------------------------------------------------------------------------------|
B|---7------7-------------------------------------------------------0--------------------|
G|-----7------7----------0--2--0-------------------------------------2-------------------|
D|-------7------7------4---------4---------7-----7----7----0----0-----0------------------|
A|---5------5------4h5-------------5-----5-----5----5----5----2---2----------------------|
E|-------------------------------------3-----3----3----3---------------------------------|

e|----------------------------------------------------------------------------------------------|
B|------------------------10------10-------------------10--------10--------10-------10----------|
G|---------------------------0-------0--------------------9---------9---------9--------9--------|
D|------7----9-----------------0-------0------0-----0-------------------------------------------|
A|--7h9---10---10--9/10---10------10--------0-----0---------------------------------------------|
E|----------------------------------------7-----9------10----10--10----10--10----10--10---------|
   but you you you...     ignoring the words....
e|--------3--------3---------------------------------------------------------------------|
B|---0----3----0---3---------------------------------------------------------------------|
G|---2----0----2---0---------------------------------------------------------------------|
D|---2----0----2---0----------4---4----------x3---4---4----------------------------------|
A|---0----2----0---2----------2---0---7---5-------2---0---7---5--------------------------|
E|--------3--------3------------------5---3---------------5---3--------------------------|
                              x   x   x   x       x   x  open open



  but you couldnt...       with every wish....
e|---0---3---0---3--------0---0-------------------------------------------------------|
B|---0---3---0---3--------0---0---0--x2-----------------------------------------------|
G|---0---0---0---0--------0---0---0---------------------------------------------------|
D|---4---0---4---0--------0---0---9---------------------------------------------------|
A|---2---2---2---2--------12--10--8---------------------------------------------------|
E|-------3-------3----------------10--------------------------------------------------|
                        


    but you you you...       liar liar liar...
e|---------------------------------------------------------------------------------------|
B|-----------------------------7----------8---------7-------8----------------------------|
G|------------------------------7---x4-----7--x4-----7-x4----7-x4------------------------|
D|-------5----------5--------0----------0---------0-------0------------------------------|
A|---7---3---7--0h3----------------------------------------------------------------------|
E|---5-------5---------------------------------------------------------------------------|
     x   x   x


         ignoring the words....
e|-------------------------------------------------------------------------|
B|-------------------------------------------------------------------------|
G|-------------------------------------------------------------------------|
D|----4---4---------------4---4--------------------------------------------|
A|----2---0---7---5-------2---0---7---5------------------------------------|
E|------------5---3---------------5---3------------------------------------|
      x   x   x   x       x   x  open open


    but you couldnt...       with every wish....
e|---0---3---0---3--------0---0-------------------------------------------------------|
B|---0---3---0---3--------0---0---0--x2-----------------------------------------------|
G|---0---0---0---0--------0---0---0---------------------------------------------------|
D|---4---0---4---0--------0---0---9---------------------------------------------------|
A|---2---2---2---2--------12--10--8---------------------------------------------------|
E|-------3-------3----------------10--------------------------------------------------|


  breakdown-ish thing:
e|-----------------------------------------------------------------------------------------------------|
B|-----------------------------------------------------------------------------------------------------|
G|------------------------------------------------22225555333300-2222555533333333----------------------|
D|------0-4-5--x3--4-4-4-4-4-4---repeat-as-many--------------------------------------------------------|
A|--4-4-0-0-0------2-2-2-2-2-2---times-as-needed-------------------------------------------------------|
E|--2-2------------------------------------------------------------------------------------------------|
                                                 xxxxxxxxxxxxxxxxxxxxxxxxxxxx    
    your father's dead...
e|-------------------------------------------------------------------------------------|
B|-------------------------------------------------------------------------------------|
G|--12--11--9--x--9/11/12--------x4----------------------------------------------------|
D|---x---x--x--x--x/x/x----9-----------------------------------------------------------|
A|--10---9--7--x--7/9/10---10----------------------------------------------------------|
E|-------------------------8-----------------------------------------------------------|
  

  outro: pray for us all...
e|-------------------------------------------------------------------------------------------|
B|------------------------0---0---0----------------------------------------------------------|
G|------------------------0---0---0----------------------------------------------------------|
D|-------------9----------0---0---0---9--x2--------------------------------------------------|
A|--10--12/14--10--------10--12--14--10------------------------------------------------------|
E|--0---10/12--8----------0--10--12---8------------------------------------------------------|
    x   x  x   x

| /  slide up
| \  slide down

| h  hammer-on
| p  pull-off
| ~  vibrato
| +  harmonic
| x  Mute note==========================================================================
Добавлено: 05.06.2012
Другие материалы по этой песне:

Страница создана 25.04.2012
http://primanota.ru/coheed-and-cambria/the-light-and-the-glass-live-chords.htm
Привет, Гость.
Предлагаем пройти революционный курс по гитаре.
Подарок от PrimaNota.Ru, забирай!