PrimaNota.ru - самый крупный в мире бесплатный архив песенных текстов, аккордов, табулатур и нот


Coheed & Cambria - The Key Entity Extraction I Domino The Destitute - таба, видео

Регистрация Запомнить меня
Войти через:  Facebook Google Twitter Vk Yandex Mail.ru

Coheed & Cambria - The Key Entity Extraction I Domino The Destitute - таба, видео

Печатать
Просмотров: 96
Авторы: Claudio Sanchez

I did not make this tab, I found it on a Forum, thought I'd share it. 

Enjoy.


Its the whole thing, both guitars and bass.



Key Entity Extraction 1: Domino The Destitute                   


                                                              Coheed and Cambria
Claudio



     H        Q    Q        W                   H        Q    Q     
E||----------------------|-------------------|---------------------|
B||----------------------|-------------------|---------------------|
G||-----------7----7b----|--L----------------|--L--------5----7----|
D||--5-------------------|-------------------|---------------------|
A||----------------------|-------------------|---------------------|
E||----------------------|-------------------|---------------------|


  Q.      Q.     Q        W                    Q.     Q.     Q     
-----------------------|-------------------|----------------------|
-----------------------|-------------------|----------------------|
--7b-------------------|-------------------|----------------------|
----------8------7b----|--L----------------|--/8------7-----------|
-----------------------|-------------------|-----------------8----|
-----------------------|-------------------|----------------------|


  Q    Q    Q    Q       Q    H.              H        H          
----------------------|--------------------|---------------------|
----------------------|--------------------|-----------8b--------|
----------------------|--7----8------------|--L------------------|
-----------------5----|--------------------|---------------------|
--5---------5---------|--------------------|---------------------|
-------3--------------|--------------------|---------------------|


  H        Q    Q       H        Q    Q        W                 
---------------------|----------------------|-------------------|
--6------------------|----------------------|-------------------|
-----------7----8----|--L--------5----5b----|--L----------------|
---------------------|----------------------|-------------------|
---------------------|----------------------|-------------------|
---------------------|----------------------|-------------------|


  Q     Q    Q    Q       H        Q    Q        W                 
-----------------------|----------------------|-------------------|
-----------------------|----------------------|-------------------|
--L\-------------------|-----------7----7b----|--L----------------|
-----------------------|--5-------------------|-------------------|
-----------------------|----------------------|-------------------|
-----------------------|----------------------|-------------------|


  H        Q    Q       Q.      Q.     Q        W                 
---------------------|-----------------------|-------------------|
---------------------|-----------------------|-------------------|
--L--------5----7----|--7b-------------------|-------------------|
---------------------|----------8------7b----|--L----------------|
---------------------|-----------------------|-------------------|
---------------------|-----------------------|-------------------|


   Q.     Q.     Q       Q    Q    Q    Q       Q    H.            
----------------------|----------------------|--------------------|
----------------------|----------------------|--------------------|
----------------------|----------------------|--7----8------------|
--/8------7-----------|-----------------5----|--------------------|
-----------------8----|--5---------5---------|--------------------|
----------------------|-------3--------------|--------------------|


  H        H            H        Q    Q       H        Q    Q      
---------------------|---------------------|----------------------|
-----------8b--------|--6------------------|----------------------|
--L------------------|-----------7----8----|--L--------5----5b----|
---------------------|---------------------|----------------------|
---------------------|---------------------|----------------------|
---------------------|---------------------|----------------------|


  W                   Q    Q     H            E   E   E   E   E   E   
-------------------|----------------------|--15--15--15--------------|
-------------------|----------------------|--------------15--15--15--|
--L----------------|--L----L\-------------|--------------------------|
-------------------|----------------------|--------------------------|
-------------------|----------------------|--------------------------|
-------------------|----------------------|--------------------------|


   E   E   E   E   E   E      E   E   E   E   E   E     E  E  E  E  E  E   
--------------------------|--10--10--10--------------|--8--8--8-----------|
--16--16--16--13--13--13--|--------------11--11--11--|-----------8--8--8--|
--------------------------|--------------------------|--------------------|
--------------------------|--------------------------|--------------------|
--------------------------|--------------------------|--------------------|
--------------------------|--------------------------|--------------------|


   E   E   E   E   E   E      E   E   E   E   E   E   
--15--15--15--------------|--------------------------|
--------------15--15--15--|--16--16--16--13--13--13--|
--------------------------|--------------------------|
--------------------------|--------------------------|
--------------------------|--------------------------|
--------------------------|--------------------------|


   E   E   E   E   E   E     E  E  E  E  E  E      E   E   E   E   E   E   
--10--10--10--------------|--8--8--8-----------|--15--15--15--------------|
--------------11--11--11--|-----------8--8--8--|--------------15--15--15--|
--------------------------|--------------------|--------------------------|
--------------------------|--------------------|--------------------------|
--------------------------|--------------------|--------------------------|
--------------------------|--------------------|--------------------------|


   E   E   E   E   E   E      E   E   E   E   E   E     E  E  E  E  E  E   
--------------------------|--------------------------|--8--8--8-----------|
--16--16--16--13--13--13--|--15--15--15--11--11--11--|-----------8--8--8--|
--------------------------|--------------------------|--------------------|
--------------------------|--------------------------|--------------------|
--------------------------|--------------------------|--------------------|
--------------------------|--------------------------|--------------------|


   E   E   E   E   E   E      E   E   E   E   E   E   
--15--15--15--------------|--------------------------|
--------------15--15--15--|--16--16--16--13--13--13--|
--------------------------|--------------------------|
--------------------------|--------------------------|
--------------------------|--------------------------|
--------------------------|--------------------------|


   E   E   E   E   E   E     E  E  E  Q.         E  E   E  E  E   E   
--------------------------|--8--8--8----------|----------------------|
--15--15--15--11--11--11--|-----------8\------|--8---------8---------|
--------------------------|-------------------|-----7p--0-----7p--0--|
--------------------------|-------------------|----------------------|
--------------------------|-------------------|----------------------|
--------------------------|-------------------|----------------------|


  E  E   E  E  E   E     E  E   E  E  E   E     E  E   E  E  E   E   
----------------------|----------------------|----------------------|
--8---------8---------|----------------------|----------------------|
-----7p--0-----7p--0--|--8--7p--0--8--7p--0--|--8--7p--0--8--7p--0--|
----------------------|----------------------|----------------------|
----------------------|----------------------|----------------------|
----------------------|----------------------|----------------------|


  E  E   E  E  E   E     E  E   E  E  E   E     E  E   E  E  E   E   
----------------------|----------------------|----------------------|
--8---------8---------|--8---------8---------|----------------------|
-----7p--0-----7p--0--|-----7p--0-----7p--0--|--8--7p--0--8--7p--0--|
----------------------|----------------------|----------------------|
----------------------|----------------------|----------------------|
----------------------|----------------------|----------------------|


  E  E   E  E  E   E     E  E   E  E  E   E     E  E   E  E  E   E   
----------------------|----------------------|----------------------|
----------------------|--8---------8---------|--8---------8---------|
--8--7p--0--8--7p--0--|-----7p--0-----7p--0--|-----7p--0-----7p--0--|
----------------------|----------------------|----------------------|
----------------------|----------------------|----------------------|
----------------------|----------------------|----------------------|


  E  E   E  E  E   E     E  E   E  E  E   E     E  E   E  E  E   E   
----------------------|----------------------|----------------------|
----------------------|----------------------|--8---------8---------|
--8--7p--0--8--7p--0--|--8--7p--0--8--7p--0--|-----7p--0-----7p--0--|
----------------------|----------------------|----------------------|
----------------------|----------------------|----------------------|
----------------------|----------------------|----------------------|


  E  E   E  E  E   E     E  E   E  E  E   E     E  E   E  E   E  E    
----------------------|----------------------|-----------------------|
--8---------8---------|----------------------|-----------------------|
-----7p--0-----7p--0--|--8--7p--0--8--7p--0--|--8--7p--0--8----------|
----------------------|----------------------|-----------------------|
----------------------|----------------------|-----------------------|
----------------------|----------------------|---------------15--Ls--|


            PM PM              PM PM              PM PM                       
  Q    Q    E  E     Q    Q    E  E     Q    Q    E  E     E  E  E  E  E  E   
------------------|------------------|------------------|--------------------|
------------------|------------------|------------------|--------------------|
------------------|------------------|------------------|--------------------|
------------------|------------------|------------------|--------------------|
------------------|------------------|------------------|--------------------|
--3----3----3--3--|--3----3----3--3--|--3----3----3--3--|--6--6--6--5--5--5--|


            PM PM              PM PM                                          
  Q    Q    E  E     Q    Q    E  E     Q    Q    E  E     E  E  E  E  E  E   
------------------|------------------|------------------|--------------------|
------------------|------------------|------------------|--------------------|
------------------|------------------|------------------|--------------------|
------------------|------------------|------------------|-----5--------------|
--6----6----6--6--|--6----6----6--6--|--5----5----5-----|--5-----6--5--------|
------------------|------------------|---------------3--|--------------6--5--|


            PM PM              PM PM              PM PM                       
  Q    Q    E  E     Q    Q    E  E     Q    Q    E  E     E  E  E  E  E  E   
------------------|------------------|------------------|--------------------|
------------------|------------------|------------------|--------------------|
------------------|------------------|------------------|--------------------|
------------------|------------------|------------------|--------------------|
------------------|------------------|------------------|--------------------|
--3----3----3--3--|--3----3----3--3--|--3----3----3--3--|--6--6--6--5--5--5--|


            PM PM              PM PM                                          
  Q    Q    E  E     Q    Q    E  E     Q    Q    E  E     E  E  E  E  E  E   
------------------|------------------|------------------|--------------------|
------------------|------------------|------------------|--------------------|
------------------|------------------|------------------|--------------------|
------------------|------------------|------------------|-----5--------------|
--6----6----6--6--|--6----6----6--6--|--5----5----5-----|--5-----6--5--------|
------------------|------------------|---------------3--|--------------6--5--|


            PM PM              PM PM              PM PM                       
  Q    Q    E  E     Q    Q    E  E     Q    Q    E  E     E  E  E  E  E  E   
------------------|------------------|------------------|--------------------|
------------------|------------------|------------------|--------------------|
------------------|------------------|------------------|--------------------|
------------------|------------------|------------------|--------------------|
------------------|------------------|------------------|--------------------|
--3----3----3--3--|--3----3----3--3--|--3----3----3--3--|--6--6--6--5--5--5--|


            PM PM              PM PM                                          
  Q    Q    E  E     Q    Q    E  E     Q    Q    E  E     E  E  E  E  E  E   
------------------|------------------|------------------|--------------------|
------------------|------------------|------------------|--------------------|
------------------|------------------|------------------|--------------------|
------------------|------------------|------------------|-----5--------------|
--6----6----6--6--|--6----6----6--6--|--5----5----5-----|--5-----6--5--------|
------------------|------------------|---------------3--|--------------6--5--|


            PM PM              PM PM              PM PM                       
  Q    Q    E  E     Q    Q    E  E     Q    Q    E  E     E  E  E  E  E  E   
------------------|------------------|------------------|--------------------|
------------------|------------------|------------------|--------------------|
------------------|------------------|------------------|--------------------|
------------------|------------------|------------------|--------------------|
------------------|------------------|------------------|--------------------|
--3----3----3--3--|--3----3----3--3--|--3----3----3--3--|--6--6--6--5--5--5--|


            PM PM              PM PM                                          
  Q    Q    E  E     Q    Q    E  E     Q    Q    E  E     E  E  E  E  E  E   
------------------|------------------|------------------|--------------------|
------------------|------------------|------------------|--------------------|
------------------|------------------|------------------|--------------------|
------------------|------------------|------------------|-----5--------------|
--6----6----6--6--|--6----6----6--6--|--5----5----5-----|--5-----6--5--------|
------------------|------------------|---------------3--|--------------6--5--|


  E  E  E  E  E  E     E  E  E  E  E  E     E  E  E  E  E  E   
--------------------|--------------------|--------------------|
--------------------|--------------------|--------------------|
--------------------|--------------------|--------------------|
-----------8--7-----|--7--5-----8--7-----|-----------8--7-----|
--6--6--6--------6--|--------6--------6--|--6--6--6--------6--|
--------------------|--------------------|--------------------|


  E  E  E  E  E  E     E  E  E  E  E  E     E  E  E  E  E  E   
--------------------|--------------------|--------------------|
--------------------|--------------------|--------------------|
--------------------|--------------------|--------------------|
--7-----------------|--------------------|--------------------|
-----6--6--6--6--6--|--------------------|-----5--------------|
--------------------|--3--3--3--3--3--3--|--3-----3--6--5--3--|


  E  E  E  E  E  E     E  E  E  E  E  E     E  E  E  E  E  E   
--------------------|--------------------|--------------------|
--------------------|--------------------|--------------------|
--------------------|--------------------|--------------------|
--------------------|--------------------|-----------8--7-----|
--------------5-----|--3--3--3--3--1--3--|--6--6--6--------6--|
--6--6--6--6-----6--|--------------------|--------------------|


  E  E  E  E  E  E     E  E  E  E  E  E     E  E  E  E  E  E   
--------------------|--------------------|--------------------|
--------------------|--------------------|--------------------|
--------------------|--------------------|--------------------|
--7--5-----8--7-----|-----------8--7-----|--7-----------7-----|
--------6--------6--|--6--6--6--------6--|-----6--6--6-----6--|
--------------------|--------------------|--------------------|


  E  E  E  E  E  E     E  E  E  E  E  E     Q    Q    Q       Q    Q    Q     
--------------------|--------------------|-----------------|-----------------|
--------------------|--------------------|-----------------|-----------------|
--------------------|--------------------|-----------------|-----------------|
--------------------|--------------------|--3----3----3----|--5----5----5----|
--------------------|--------------------|--1----1----1----|--3----3----3----|
--3--3--3--3--3--3--|--3--3--3--3--3--3--|-----------------|-----------------|


  E  E  E  E  E  E     E  E  E  E  E  E     E  E  E  E  E  E   
--------------------|--------------------|--------------------|
--------------------|--------------------|--------------------|
--------------------|--------------------|--------------------|
--8--8--8--8--8--8--|--8--8--8--8--8--8--|--8--8--8--8--8--8--|
--6--6--6--6--6--6--|--6--6--6--6--6--6--|--6--6--6--6--6--6--|
--------------------|--------------------|--------------------|


  E  E  E  E  E  E     E  E  E  E  E  E     E  E  E  E  E  E   
--------------------|--------------------|--------------------|
--------------------|--------------------|--------------------|
--------------------|--------------------|--------------------|
--8--8--8--8--8--8--|--------------------|--------------------|
--6--6--6--6--6--6--|--5--5--5--5--5--5--|--5--5--5--5--5--5--|
--------------------|--3--3--3--3--3--3--|--3--3--3--3--3--3--|


  E  E  E  E  E  E     E  E  E  E  E  E     E  E  E  E  E  E   
--------------------|--------------------|--------------------|
--------------------|--------------------|--------------------|
--------------------|--------------------|--------------------|
--3--3--3--3--3--3--|--5--5--5--5--5--5--|--8--8--8--8--8--8--|
--1--1--1--1--1--1--|--3--3--3--3--3--3--|--6--6--6--6--6--6--|
--------------------|--------------------|--------------------|


  E  E  E  E  E  E     E  E  E  E  E  E     E  E  E  E  E  E   
--------------------|--------------------|--------------------|
--------------------|--------------------|--------------------|
--------------------|--------------------|--------------------|
--8--8--8--8--8--8--|--8--8--8--8--8--8--|--8--8--8--8--8--8--|
--6--6--6--6--6--6--|--6--6--6--6--6--6--|--6--6--6--6--6--6--|
--------------------|--------------------|--------------------|


  E  E  E  E  E  E     E  E  E  E  E  E     E  E  E  E  E  E   
--------------------|--------------------|--------------------|
--------------------|--------------------|--------------------|
--------------------|--------------------|--------------------|
--------------------|--------------------|--------------------|
--5--5--5--5--5--5--|--5--5--5--5--5--5--|--5--5--5--5--5--5--|
--3--3--3--3--3--3--|--3--3--3--3--3--3--|--2--2--2--2--2--2--|


  E  E  E  E  E  E     Q    Q    E  E     Q    Q    Q       Q    Q     Q     
--------------------|------------------|-----------------|------------------|
--------------------|------------------|-----------------|------------------|
--------------------|------------------|-----------------|------------------|
--------------------|------------------|-----------------|------------------|
--5--5--5--5--5--5--|------------------|-----------------|------------------|
--2--2--2--2--2--2--|--3----3----3--6--|--5----3----6----|--3----L\---------|


  Q    Q    Q       Q    E  E  E  E     E  E  E  E  E  E     Q    Q    Q     
-----------------|-------------------|--------------------|-----------------|
-----------------|-------------------|--------------------|-----------------|
-----------------|-------------------|--------------------|-----------------|
-----------------|----------------5--|--------------------|-----------------|
--3----3----5----|--6----5--6--5-----|--6--5-----------6--|-------3----6----|
-----------------|-------------------|--------6--5--8-----|--5--------------|


  Q.     Q.        Q    Q    E  E     Q    Q    Q       Q    Q     Q     
----------------|------------------|-----------------|------------------|
----------------|------------------|-----------------|------------------|
----------------|------------------|-----------------|------------------|
----------------|------------------|-----------------|------------------|
----------------|------------------|-----------------|------------------|
--6------5------|--3----3----3--6--|--5----3----6----|--3----L\---------|


  Q    Q    Q       Q    E  E  E  E     E  E  E  E  E  E     Q    Q    Q     
-----------------|-------------------|--------------------|-----------------|
-----------------|-------------------|--------------------|-----------------|
-----------------|-------------------|--------------------|-----------------|
-----------------|----------------5--|--------------------|-----------------|
--3----3----5----|--6----5--6--5-----|--6--5-----------6--|-------3----6----|
-----------------|-------------------|--------6--5--8-----|--5--------------|


  Q.     Q.        E  E  E  E  E  E     E  E  E  E  E  E     E  E  E  E  E  E   
----------------|--------------------|--------------------|--------------------|
----------------|--------------------|--------------------|--------------------|
----------------|--------------------|--------------------|--------------------|
----------------|--5--5--5--5--5--5--|--5--5--5--5--5--5--|--3--3--3--3--3--3--|
----------------|--------------------|--------------------|--------------------|
--6------5------|--------------------|--------------------|--------------------|


  E  E  E  E  E  E     E  E  E  E  E  E     E  E  E  E  E  E   
--------------------|--------------------|--------------------|
--------------------|--------------------|--------------------|
--------------------|--------------------|--------------------|
--8--8--8--8--8--8--|--------------------|--------------------|
--------------------|--6--6--6--6--6--6--|--6--6--6--6--6--6--|
--------------------|--------------------|--------------------|


  E  E  E  E  E  E     E  E  E  E  E  E     E  E  E  E  E  E   
--------------------|--------------------|--------------------|
--------------------|--------------------|--------------------|
--------------------|--------------------|--------------------|
--------------------|--------------------|--5--5--5--5--5--5--|
--3--3--3--3--3--3--|--5--5--5--5--5--5--|--------------------|
--------------------|--------------------|--------------------|


  E  E  E  E  E  E     E  E  E  E  E  E     E  E  E  E  E  E   
--------------------|--------------------|--------------------|
--------------------|--------------------|--------------------|
--------------------|--------------------|--------------------|
--5--5--5--5--5--5--|--3--3--3--3--3--3--|--8--8--8--8--8--8--|
--------------------|--------------------|--------------------|
--------------------|--------------------|--------------------|


  E  E  E  E  E  E     E  E  E  E  E  E     E  E  E  E  E  E   
--------------------|--------------------|--------------------|
--------------------|--------------------|--------------------|
--------------------|--------------------|--------------------|
--------------------|--------------------|--------------------|
--6--6--6--6--6--6--|--6--6--6--6--6--6--|--3--3--3--3--3--3--|
--------------------|--------------------|--------------------|


  E  E  E  E  E  E     E  E  E  E  E  E     E  E  E  E  E  E   
--------------------|--------------------|--------------------|
--------------------|--------------------|--------------------|
--------------------|--------------------|--------------------|
--------------------|-----------8--7-----|--7--5-----8--7-----|
--5--5--5--5--5--5--|--6--6--6--------6--|--------6--------6--|
--------------------|--------------------|--------------------|


  E  E  E  E  E  E     E  E  E  E  E  E     E  E  E  E  E  E   
--------------------|--------------------|--------------------|
--------------------|--------------------|--------------------|
--------------------|--------------------|--------------------|
-----------8--7-----|--7-----------------|--------------------|
--6--6--6--------6--|-----6--6--6--6--6--|--------------------|
--------------------|--------------------|--3--3--3--3--3--3--|


  E  E  E  E  E  E     E  E  E  E  E  E     E  E  E  E  E  E   
--------------------|--------------------|--------------------|
--------------------|--------------------|--------------------|
--------------------|--------------------|--------------------|
--------------------|--------------------|--------------------|
-----5--------------|--------------5-----|--3--3--3--3--1--3--|
--3-----3--6--5--3--|--6--6--6--6-----6--|--------------------|


  E  E  E  E  E  E     E  E  E  E  E  E     E  E  E  E  E  E   
--------------------|--------------------|--------------------|
--------------------|--------------------|--------------------|
--------------------|--------------------|--------------------|
-----------8--7-----|--7--5-----8--7-----|-----------8--7-----|
--6--6--6--------6--|--------6--------6--|--6--6--6--------6--|
--------------------|--------------------|--------------------|


  E  E  E  E  E  E     E  E  E  E  E  E     E  E  E  E  E  E   
--------------------|--------------------|--------------------|
--------------------|--------------------|--------------------|
--------------------|--------------------|--------------------|
--7-----------7-----|--------------------|--------------------|
-----6--6--6-----6--|--------------------|--------------------|
--------------------|--3--3--3--3--3--3--|--3--3--3--3--3--3--|


  Q    Q    Q       Q    Q    Q       E  E  E  E  E  E     E  E  E  E  E  E   
-----------------|-----------------|--------------------|--------------------|
-----------------|-----------------|--------------------|--------------------|
-----------------|-----------------|--------------------|--------------------|
--3----3----3----|--5----5----5----|--8--8--8--8--8--8--|--8--8--8--8--8--8--|
--1----1----1----|--3----3----3----|--6--6--6--6--6--6--|--6--6--6--6--6--6--|
-----------------|-----------------|--------------------|--------------------|


  E  E  E  E  E  E     E  E  E  E  E  E     E  E  E  E  E  E   
--------------------|--------------------|--------------------|
--------------------|--------------------|--------------------|
--------------------|--------------------|--------------------|
--8--8--8--8--8--8--|--8--8--8--8--8--8--|--------------------|
--6--6--6--6--6--6--|--6--6--6--6--6--6--|--5--5--5--5--5--5--|
--------------------|--------------------|--3--3--3--3--3--3--|


  E  E  E  E  E  E     E  E  E  E  E  E     E  E  E  E  E  E   
--------------------|--------------------|--------------------|
--------------------|--------------------|--------------------|
--------------------|--------------------|--------------------|
--------------------|--3--3--3--3--3--3--|--5--5--5--5--5--5--|
--5--5--5--5--5--5--|--1--1--1--1--1--1--|--3--3--3--3--3--3--|
--3--3--3--3--3--3--|--------------------|--------------------|


  E  E  E  E  E  E     E  E  E  E  E  E     E  E  E  E  E  E   
--------------------|--------------------|--------------------|
--------------------|--------------------|--------------------|
--------------------|--------------------|--------------------|
--8--8--8--8--8--8--|--8--8--8--8--8--8--|--8--8--8--8--8--8--|
--6--6--6--6--6--6--|--6--6--6--6--6--6--|--6--6--6--6--6--6--|
--------------------|--------------------|--------------------|


  E  E  E  E  E  E     E  E  E  E  E  E     E  E  E  E  E  E   
--------------------|--------------------|--------------------|
--------------------|--------------------|--------------------|
--------------------|--------------------|--------------------|
--8--8--8--8--8--8--|--------------------|--------------------|
--6--6--6--6--6--6--|--5--5--5--5--5--5--|--5--5--5--5--5--5--|
--------------------|--3--3--3--3--3--3--|--3--3--3--3--3--3--|


  E  E  E  E  E  E     E  E  E  E  E  E     E  E  E  E  E  E   
--------------------|--------------------|--------------------|
--------------------|--------------------|--------------------|
--------------------|--------------------|--------------------|
--------------------|--------------------|--------------------|
--5--5--5--5--5--5--|--5--5--5--5--5--5--|--5-----------------|
--2--2--2--2--2--2--|--2--2--2--2--2--2--|-----3--L--3--6--5--|


  E  E  E  E  E  E     E  E  E  E  E  E     E  E  E  E  E  E   
--------------------|--------------------|--------------------|
--------------------|--------------------|--------------------|
--------------------|--------------------|--------------------|
--------------------|--------------------|-----------5--------|
--5-----------------|--5--6--5--3--5--3--|-----3--5-----6--5--|
-----3--L--3--6--5--|--------------------|--3-----------------|


  E  E  E  E  E  E     E  E  E  E  E  E     H          E  E     Q    Q    Q     
--------------------|--------------------|-------------------|-----------------|
--------------------|--------------------|-------------------|-----------------|
--------------------|--------------------|--7b---------L-----|-----------------|
--8--8--8-----8--8--|--8--8--8-----8--8--|--5br--------L-----|-----------------|
--6--6--6-----6--6--|--6--6--6-----6--6--|-------------------|--3----3----3----|
--------------------|--------------------|-------------------|--1----1----1----|


  Q    Q    E  E     E  E  E  E  E  E     E  E  E  E  E  E   
------------------|--------------------|--------------------|
------------------|--------------------|--------------------|
------------------|--------------------|--------------------|
------------------|--------------------|--------------------|
---------------3--|--5-----------------|--5--6--5--3--5--3--|
--3----6----5-----|-----6--3--6--8--6--|--------------------|


  E  E  E  E  E  E     E  E  E  E  E  E     E  E  E  E  E  E   
--------------------|--------------------|--------------------|
--------------------|--------------------|--------------------|
--------------------|--------------------|--------------------|
-----------5--------|--8--8--8-----8--8--|--8--8--8-----8--8--|
-----3--5-----6--5--|--6--6--6-----6--6--|--6--6--6-----6--6--|
--3-----------------|--------------------|--------------------|


  H          E  E     Q    Q    Q       Q    Q    S E  Q    Q    S E   
-------------------|-----------------|--------------------------------|
-------------------|-----------------|--------------------------------|
--7b---------L-----|-----------------|------------7-8------------7-8--|
--5br--------L-----|-----------------|-------8--------------8---------|
-------------------|--3----3----3----|--6--------------6--------------|
-------------------|--1----1----1----|--------------------------------|


  Q    Q    S E  Q    Q    E.      Q    Q    S E  Q    Q    S E   
--------------------------------|--------------------------------|
--------------------------------|--------------------------------|
------------7-8-----------------|------------0-3------------0-3--|
-------8--------------8----L\---|-------5--------------5---------|
--6--------------6--------------|--3--------------3--------------|
--------------------------------|--------------------------------|


  Q    Q    S E  Q    Q    E.     Q    Q    S E  Q    Q    S E   
-------------------------------|--------------------------------|
-------------------------------|--------------------------------|
------------0-3----------------|------------7-8------------7-8--|
-------5--------------0--------|-------8--------------8---------|
--3--------------1---------1---|--6--------------6--------------|
-------------------------------|--------------------------------|


  Q    Q    S E  Q    Q    E.      Q    Q    S E  Q    Q    S E   
--------------------------------|--------------------------------|
--------------------------------|--------------------------------|
------------7-8-----------------|------------0-3------------0-3--|
-------8--------------8----L\---|-------5--------------5---------|
--6--------------6--------------|--3--------------3--------------|
--------------------------------|--------------------------------|


  Q    Q    S E  E.  E.  E.  E     Q.     Q.     Q       W                 
--------------------------------|---------------------|-------------------|
--------------------------------|---------------------|-------------------|
------------0-3-----------------|---------------------|-------------------|
-------5-----------------0---L--|---------------------|-------------------|
--3------------------3----------|---------5------5----|--L----------------|
-----------------3--------------|--3------------------|-------------------|


  Q.     Q.     Q       E  Q.     Q.     E     W                 
---------------------|----------------------|-------------------|
---------------------|----------------------|-------------------|
---------------------|----------------------|-------------------|
--1------0-----------|----------------------|-------------------|
----------------1----|--L--3------5------5--|--L----------------|
---------------------|----------------------|-------------------|


  Q.     Q.     Q       E  Q.     Q.     E     W                 
---------------------|----------------------|-------------------|
---------------------|----------------------|-------------------|
---------------------|----------------------|-------------------|
--1------0-----------|------------3------3--|--L----------------|
----------------1----|--L--3----------------|-------------------|
---------------------|----------------------|-------------------|


  Q.     Q.     Q       E  H        Q.        Q    Q    Q    Q     
---------------------|---------------------|----------------------|
---------------------|---------------------|----------------------|
---------------------|---------------------|----------------------|
--5------3-----------|-----1--------L------|--3----0--------------|
----------------5----|--L------------------|------------3----L----|
---------------------|---------------------|----------------------|


  Q    E.  E.  E.  E.     Q.     Q.     Q       W                 
-----------------------|---------------------|-------------------|
-----------------------|---------------------|-------------------|
-----------------------|---------------------|-------------------|
-------------------0---|---------------------|-------------------|
--L----L---1---3-------|---------5------5----|--L----------------|
-----------------------|--3------------------|-------------------|


  Q.     Q.     Q       E  Q.     Q.     E     W                 
---------------------|----------------------|-------------------|
---------------------|----------------------|-------------------|
---------------------|----------------------|-------------------|
--1------0-----------|----------------------|-------------------|
----------------1----|--L--3------5------5--|--L----------------|
---------------------|----------------------|-------------------|


  Q.     Q.     Q       E  Q.     Q.     E     W                 
---------------------|----------------------|-------------------|
---------------------|----------------------|-------------------|
---------------------|----------------------|-------------------|
--1------0-----------|------------3------3--|--L----------------|
----------------1----|--L--3----------------|-------------------|
---------------------|----------------------|-------------------|


  Q.     Q.     Q       E  H        Q.        Q    Q    Q    Q     
---------------------|---------------------|----------------------|
---------------------|---------------------|----------------------|
---------------------|---------------------|----------------------|
--5------3-----------|-----1--------L------|--3----0--------------|
----------------5----|--L------------------|------------3----L----|
---------------------|---------------------|----------------------|


  W                    E  E  E  E  E  E     E  E  E  E  E  E   
--------------------|--------------------|--------------------|
--------------------|--------------------|--------------------|
--------------------|--------------------|--------------------|
--------------------|--------------------|--------------------|
--Lb----------------|--------------------|--------------------|
--------------------|--3--3--3--4--3--3--|-----3--3--4--3--3--|


  E  E  E  E  E  E     E  E  E  E  E  E     E  E  E  E  E  E   
--------------------|--------------------|--------------------|
--------------------|--------------------|--------------------|
--------------------|--------------------|--------------------|
--------------------|--------------------|--------------------|
--------------------|--1-----------------|--------------------|
-----3--3--4--3--3--|-----3--0--1--4--3--|-----3--3--4--3--3--|


                                              PM PM                            
  E  E  E  E  E  E     Q    Q    Q       Q    E  E  Q       E  E  E  E  E  E   
--------------------|-----------------|------------------|--------------------|
--------------------|-----------------|------------------|--------------------|
--------------------|-----------------|------------------|--------------------|
--------------------|--6--------------|------------------|--------------------|
--------------------|--4----3----6----|--5----3--3--3----|--------------------|
-----3--3--4--3--3--|-------1----4----|--3----1--1--1----|--3--3--3--4--3--3--|


  E  E  E  E  E  E     E  E  E  E  E  E     E  E  E  E  E  E   
--------------------|--------------------|--------------------|
--------------------|--------------------|--------------------|
--------------------|--------------------|--------------------|
--------------------|--------------------|--------------------|
--------------------|--------------------|--1-----------------|
-----3--3--4--3--3--|-----3--3--4--3--3--|-----3--0--1--4--3--|


                                                                   PM PM       
  E  E  E  E  E  E     E  E  E  E  E  E     Q    Q    Q       Q    E  E  Q     
--------------------|--------------------|-----------------|------------------|
--------------------|--------------------|-----------------|------------------|
--------------------|--------------------|-----------------|------------------|
--------------------|--------------------|--6--------------|------------------|
--------------------|--------------------|--4----3----6----|--5----3--3--3----|
-----3--3--4--3--3--|-----3--3--4--3--3--|-------1----4----|--3----1--1--1----|


  H.              Q    Q    Q       H.              Q    Q    Q     
---------------|-----------------|---------------|-----------------|
---------------|-----------------|---------------|-----------------|
---------------|-----------------|---------------|-----------------|
--6------------|--6----5---------|---------------|-------5----6----|
--4------------|--4----3----6----|--8------------|--8----3----4----|
---------------|------------4----|--6------------|--6--------------|


  H.              Q    Q    Q       H.              Q    Q    Q     
---------------|-----------------|---------------|-----------------|
---------------|-----------------|---------------|-----------------|
---------------|-----------------|---------------|-----------------|
---------------|-----------------|--3------------|--3---------8----|
--3------------|--3----5----6----|--1------------|--1----6----6----|
--1------------|--1----3----4----|---------------|-------4---------|


  H.              Q    Q    Q       H.              Q    Q    Q     
---------------|-----------------|---------------|-----------------|
---------------|-----------------|---------------|-----------------|
---------------|-----------------|---------------|-----------------|
--6------------|--6----5---------|---------------|-------5----6----|
--4------------|--4----3----6----|--8------------|--8----3----4----|
---------------|------------4----|--6------------|--6--------------|


  H.              H.              E  E  E  E  E  E     E  E  E  E  E  E   
---------------|---------------|--------------------|--------------------|
---------------|---------------|--------------------|--------------------|
---------------|---------------|--5-----------------|--5-----------------|
--5------------|--L------------|-----6--3-----6--5--|-----6--3-----6--5--|
--3------------|--L------------|-----------3--------|-----------3--------|
---------------|---------------|--------------------|--------------------|


  E  E  E  E  E  E     E  E  E  E  E  E     E  E  E  E  E  E   
--------------------|--------------------|--------------------|
--------------------|--------------------|--------------------|
--5-----------------|--5-----------------|--6-----------------|
-----6--3-----6--5--|-----6--3-----6--5--|-----6--3-----6--5--|
-----------3--------|-----------3--------|-----------3--------|
--------------------|--------------------|--------------------|


  E  E  E  E  E  E     E  E  E  E  E  E     E  E  E  E  E  E   
--------------------|--------------------|--------------------|
--------------------|--------------------|--------------------|
--6-----------------|--6-----------------|--6-----------------|
-----6--3-----6--5--|-----6--3-----6--5--|-----6--3-----6--5--|
-----------3--------|-----------3--------|-----------3--------|
--------------------|--------------------|--------------------|


  E  E  E  E  E  E     E  E  E  E  E  E     E  E  E  E  E  E   
--------------------|--------------------|--------------------|
--------------------|--------------------|--------------------|
--5-----------------|--5-----------------|--5-----------------|
-----6--3-----6--5--|-----6--3-----6--5--|-----6--3-----6--5--|
-----------3--------|-----------3--------|-----------3--------|
--------------------|--------------------|--------------------|


  E  E  E  E  E  E     E  E  E  E  E  E     E  E  E  E  E  E   
--------------------|--------------------|--------------------|
--------------------|--------------------|--------------------|
--5-----------------|--6-----------------|--6-----------------|
-----6--3-----6--5--|-----6--3-----6--5--|-----6--3-----6--5--|
-----------3--------|-----------3--------|-----------3--------|
--------------------|--------------------|--------------------|


  E  E  E  E  E  E     E  E  E  E  E  E     H.              H.            
--------------------|--------------------|---------------|---------------|
--------------------|--------------------|---------------|---------------|
--6-----------------|--6--5--3--5--------|---------------|---------------|
-----6--3-----6--5--|--------------8--6--|--5------------|--L------------|
-----------3--------|--------------------|--6------------|--L------------|
--------------------|--------------------|---------------|---------------|


  H.              H.              H.              H.              H.            
---------------|---------------|---------------|---------------|---------------|
---------------|---------------|---------------|---------------|---------------|
---------------|---------------|---------------|---------------|---------------|
--L------------|--L------------|--6------------|--L------------|--L------------|
--L------------|--L------------|--4------------|--L------------|--L------------|
---------------|---------------|---------------|---------------|---------------|


  H.              H.              H.              H.              H.            
---------------|---------------|---------------|---------------|---------------|
---------------|---------------|---------------|---------------|---------------|
---------------|---------------|---------------|---------------|---------------|
--L------------|--5------------|--L------------|--L------------|--L------------|
--L------------|--6------------|--L------------|--L------------|--L------------|
---------------|---------------|---------------|---------------|---------------|


  H.              Q     H           E  E  E  E  E  E     E  E  E  E  E  E   
---------------|-----------------|--------------------|--------------------|
---------------|-----------------|--------------------|--------------------|
---------------|-----------------|--6--5--------------|--------------------|
--6------------|--L\-------------|--------8--6--5-----|--8--6--5-----------|
--4------------|--L\-------------|-----------------8--|-----------8--6--5--|
---------------|-----------------|--------------------|--------------------|


  Q.     Q.     Q       W                   Q.     Q.     Q     
---------------------|-------------------|---------------------|
---------------------|-------------------|---------------------|
---------------------|-------------------|---------------------|
---------------------|-------------------|--1------0-----------|
---------5------5----|--L----------------|----------------1----|
--3------------------|-------------------|---------------------|


  E  Q.     Q.     E     W                   Q.     Q.     Q     
----------------------|-------------------|---------------------|
----------------------|-------------------|---------------------|
----------------------|-------------------|---------------------|
----------------------|-------------------|--1------0-----------|
--L--3------5------5--|--L----------------|----------------1----|
----------------------|-------------------|---------------------|


  E  Q.     Q.     E     W                   Q.     Q.     Q     
----------------------|-------------------|---------------------|
----------------------|-------------------|---------------------|
----------------------|-------------------|---------------------|
------------3------3--|--L----------------|--5------3-----------|
--L--3----------------|-------------------|----------------5----|
----------------------|-------------------|---------------------|


  E  H        Q.        Q    Q    Q    Q       Q    E.  E.  E.  E.   
---------------------|----------------------|-----------------------|
---------------------|----------------------|-----------------------|
---------------------|----------------------|-----------------------|
-----1--------L------|--3----0--------------|-------------------0---|
--L------------------|------------3----L----|--L----L---1---3-------|
---------------------|----------------------|-----------------------|


  Q.     Q.     Q       W                   Q.     Q.     Q     
---------------------|-------------------|---------------------|
---------------------|-------------------|---------------------|
---------------------|-------------------|---------------------|
---------------------|-------------------|--1------0-----------|
---------5------5----|--L----------------|----------------1----|
--3------------------|-------------------|---------------------|


  E  Q.     Q.     E     W                   Q.     Q.     Q     
----------------------|-------------------|---------------------|
----------------------|-------------------|---------------------|
----------------------|-------------------|---------------------|
----------------------|-------------------|--1------0-----------|
--L--3------5------5--|--L----------------|----------------1----|
----------------------|-------------------|---------------------|


  E  Q.     Q.     E     W                   Q.     Q.     Q     
----------------------|-------------------|---------------------|
----------------------|-------------------|---------------------|
----------------------|-------------------|---------------------|
------------3------3--|--L----------------|--5------3-----------|
--L--3----------------|-------------------|----------------5----|
----------------------|-------------------|---------------------|


  E  H        Q.        Q    Q    Q    Q       W                  
---------------------|----------------------|--------------------|
---------------------|----------------------|--------------------|
---------------------|----------------------|--------------------|
-----1--------L------|--3----0--------------|--------------------|
--L------------------|------------3----L----|--Lb----------------|
---------------------|----------------------|--------------------|


   E   E   E   E   E   E      E   E   E   E   E   E   
--15--15--15--------------|--------------------------|
--------------15--15--15--|--16--16--16--13--13--13--|
--------------------------|--------------------------|
--------------------------|--------------------------|
--------------------------|--------------------------|
--------------------------|--------------------------|


   E   E   E   E   E   E     E  E  E  Q.         E  E   E  E  E   E   
--------------------------|--8--8--8----------|----------------------|
--15--15--15--11--11--11--|-----------8\------|--8---------8---------|
--------------------------|-------------------|-----7p--0-----7p--0--|
--------------------------|-------------------|----------------------|
--------------------------|-------------------|----------------------|
--------------------------|-------------------|----------------------|


  E  E   E  E  E   E     E  E   E  E  E   E     E  E   E  E  E   E   
----------------------|----------------------|----------------------|
--8---------8---------|----------------------|----------------------|
-----7p--0-----7p--0--|--8--7p--0--8--7p--0--|--8--7p--0--8--7p--0--|
----------------------|----------------------|----------------------|
----------------------|----------------------|----------------------|
----------------------|----------------------|----------------------|


   E   E   E   E   E   E      E   E   E   E   E   E   
--15--15--15--------------|--------------------------|
--------------15--15--15--|--16--16--16--13--13--13--|
--------------------------|--------------------------|
--------------------------|--------------------------|
--------------------------|--------------------------|
--------------------------|--------------------------|


   E   E   E   E   E   E     E  E  E  Q.         E  E   E  E  E   E   
--------------------------|--8--8--8----------|----------------------|
--15--15--15--11--11--11--|-----------8\------|--8---------8---------|
--------------------------|-------------------|-----7p--0-----7p--0--|
--------------------------|-------------------|----------------------|
--------------------------|-------------------|----------------------|
--------------------------|-------------------|----------------------|


  E  E   E  E  E   E     E  E   E  E  E   E     E  E   E  E  E   E   
----------------------|----------------------|----------------------|
--8---------8---------|----------------------|----------------------|
-----7p--0-----7p--0--|--8--7p--0--8--7p--0--|--8--7p--0--8--7p--0--|
----------------------|----------------------|----------------------|
----------------------|----------------------|----------------------|
----------------------|----------------------|----------------------|


  E  E  E  E  E  E     E  E  E  E  E  E     E  E  E  E  E  E   
--------------------|--------------------|--------------------|
--------------------|--------------------|--------------------|
--------------------|--------------------|--------------------|
--------------------|--------------------|--------------------|
--6--6--6--6--6--6--|--6--6--6--6--6--6--|--------------------|
--------------------|--------------------|--8--8--8--8--8--8--|


  E  E  E  E  E  E     E  E  E  E  E  E     E  E  E  E  E  E   
--------------------|--------------------|--------------------|
--------------------|--------------------|--------------------|
--------------------|--------------------|--------------------|
--------------------|--------------------|--------------------|
--------------------|--------------------|--------------------|
--8--8--8--8--8--8--|--6--6--6--6--6--6--|--6--6--6--6--6--6--|


  E  E  E  E  E  E     E  E  E  E  E  E     E  E  E  E  E  E   
--------------------|--------------------|--------------------|
--------------------|--------------------|--------------------|
--------------------|--------------------|--------------------|
--------------------|--------------------|--------------------|
--------------------|--------------------|--6--6--6--6--6--6--|
--3--3--3--3--3--3--|--3--3--3--3--3--3--|--------------------|


  E  E  E  E  E  E     E  E  E  E  E  E     E  E  E  E  E  E   
--------------------|--------------------|--------------------|
--------------------|--------------------|--------------------|
--------------------|--------------------|--------------------|
--------------------|--------------------|--------------------|
--6--6--6--6--6--6--|--------------------|--------------------|
--------------------|--8--8--8--8--8--8--|--8--8--8--8--8--8--|


  E  E  E  E  E  E     E  E  E  E  E  E     E  E  E  E  E  E   
--------------------|--------------------|--------------------|
--------------------|--------------------|--------------------|
--------------------|--------------------|--------------------|
--------------------|--------------------|--------------------|
--5--5--5--5--5--5--|--5--5--5--5--5--5--|--5--5--5--5--5--5--|
--------------------|--------------------|--------------------|


  E  E  E  E  E  E     E  E  E  E  E  E     E  E  E  E  E  E   
--------------------|--------------------|--------------------|
--------------------|--------------------|--------------------|
--------------------|--------------------|--------------------|
--------------------|-----------8--7-----|--7--L--------8--7--|
--5--5--5--5--5--5--|--6--L--6--------6--|--------6--L--------|
--------------------|--------------------|--------------------|


  E  E  E  E  E  E     E  E  E  E  E  E     E  E  E  E  E  E   
--------------------|--------------------|--------------------|
--------------------|--------------------|--------------------|
--------------------|--------------------|--------------------|
-----------8--7-----|--7--L--------8--7--|--------------------|
--6--L--6--------6--|--------6--L--------|--------------------|
--------------------|--------------------|--3--3--3--3--3--3--|


  E  E  E  E  E  E     E  E  E  E  E  E     E  E  E  E  E  E   
--------------------|--------------------|--------------------|
--------------------|--------------------|--------------------|
--------------------|--------------------|--------------------|
--------------------|--------------------|--------------------|
-----5--------------|--------------5-----|--3--3--3--3--1--3--|
--3-----3--6--5--3--|--6--6--6--6-----6--|--------------------|


  E  E  E  E  E  E     E  E  E  E  E  E     E  E  E  E  E  E   
--------------------|--------------------|--------------------|
--------------------|--------------------|--------------------|
--------------------|--------------------|--------------------|
-----------8--7-----|--7--L--------8--7--|-----------8--7-----|
--6--L--6--------6--|--------6--L--------|--6--L--6--------6--|
--------------------|--------------------|--------------------|


  E  E  E  E  E  E     E  E  E  E  E  E     E  E  E  E  E  E   
--------------------|--------------------|--------------------|
--------------------|--------------------|--------------------|
--------------------|--------------------|--------------------|
--7--L--------8--7--|--------------------|--------------------|
--------6--L--------|--------------------|--------------------|
--------------------|--3--3--3--3--3--3--|--3--3--3--3--3--3--|


  Q    Q    Q       Q    Q    Q       E  E  E  E  E  E     E  E  E  E  E  E   
-----------------|-----------------|--------------------|--------------------|
-----------------|-----------------|--------------------|--------------------|
-----------------|-----------------|--------------------|--------------------|
--3----3----3----|--5----5----5----|--8--8--8--8--8--8--|--8--8--8--8--8--8--|
--1----1----1----|--3----3----3----|--6--6--6--6--6--6--|--6--6--6--6--6--6--|
-----------------|-----------------|--------------------|--------------------|


  E  E  E  E  E  E     E  E  E  E  E  E     E  E  E  E  E  E   
--------------------|--------------------|--------------------|
--------------------|--------------------|--------------------|
--------------------|--------------------|--------------------|
--8--8--8--8--8--8--|--8--8--8--8--8--8--|--------------------|
--6--6--6--6--6--6--|--6--6--6--6--6--6--|--5--5--5--5--5--5--|
--------------------|--------------------|--3--3--3--3--3--3--|


  E  E  E  E  E  E     E  E  E  E  E  E     E  E  E  E  E  E   
--------------------|--------------------|--------------------|
--------------------|--------------------|--------------------|
--------------------|--------------------|--------------------|
--------------------|--3--3--3--3--3--3--|--5--5--5--5--5--5--|
--5--5--5--5--5--5--|--1--1--1--1--1--1--|--3--3--3--3--3--3--|
--3--3--3--3--3--3--|--------------------|--------------------|


  E  E  E  E  E  E     E  E  E  E  E  E     E  E  E  E  E  E   
--------------------|--------------------|--------------------|
--------------------|--------------------|--------------------|
--------------------|--------------------|--------------------|
--8--8--8--8--8--8--|--8--8--8--8--8--8--|--8--8--8--8--8--8--|
--6--6--6--6--6--6--|--6--6--6--6--6--6--|--6--6--6--6--6--6--|
--------------------|--------------------|--------------------|


  E  E  E  E  E  E     E  E  E  E  E  E     E  E  E  E  E  E   
--------------------|--------------------|--------------------|
--------------------|--------------------|--------------------|
--------------------|--------------------|--------------------|
--8--8--8--8--8--8--|--------------------|--------------------|
--6--6--6--6--6--6--|--5--5--5--5--5--5--|--5--5--5--5--5--5--|
--------------------|--3--3--3--3--3--3--|--3--3--3--3--3--3--|


  E  E  E  E  E  E     E  E  E  E  E  E     E  E  E  E  E  E   
--------------------|--------------------|--------------------|
--------------------|--------------------|--------------------|
--------------------|--------------------|--------------------|
--------------------|--------------------|--8--8--8--8--8--8--|
--5--5--5--5--5--5--|--5--5--5--5--5--5--|--6--6--6--6--6--6--|
--2--2--2--2--2--2--|--2--2--2--2--2--2--|--------------------|


  E  E  E  E  E  E     E  E  E  E  E  E     E  E  E  E  E  E   
--------------------|--------------------|--------------------|
--------------------|--------------------|--------------------|
--------------------|--------------------|--------------------|
--8--8--8--8--8--8--|--8--8--8--8--8--8--|--8--8--8--8--8--8--|
--6--6--6--6--6--6--|--6--6--6--6--6--6--|--6--6--6--6--6--6--|
--------------------|--------------------|--------------------|


  E  E  E  E  E  E     E  E  E  E  E  E     Q    Q    Q       Q    Q    Q     
--------------------|--------------------|-----------------|-----------------|
--------------------|--------------------|-----------------|-----------------|
--------------------|--------------------|-----------------|-----------------|
--------------------|--------------------|--3----3----3----|--5----5----5----|
--5--5--5--5--5--5--|--5--5--5--5--5--5--|--1----1----1----|--3----3----3----|
--3--3--3--3--3--3--|--3--3--3--3--3--3--|-----------------|-----------------|


  E  E  E  E  E  E     E  E  E  E  E  E     E  E  E  E  E  E   
--------------------|--------------------|--------------------|
--------------------|--------------------|--------------------|
--------------------|--------------------|--------------------|
--8--8--8--8--8--8--|--8--8--8--8--8--8--|--8--8--8--8--8--8--|
--6--6--6--6--6--6--|--6--6--6--6--6--6--|--6--6--6--6--6--6--|
--------------------|--------------------|--------------------|


  E  E  E  E  E  E     Q    Q    Q       Q    E  Q    E     Q    Q    Q     
--------------------|-----------------|------------------|-----------------|
--------------------|-----------------|------------------|-----------------|
--------------------|-----------------|------------------|-----------------|
--8--8--8--8--8--8--|-----------------|------------------|--3----3----3----|
--6--6--6--6--6--6--|--5----5----5----|--5----L----------|--1----1----1----|
--------------------|--3----3----3----|--3----L----------|-----------------|


  Q    Q    Q       E  E  E  E  E  E     E  E  E  E  E  E   
-----------------|--------------------|--------------------|
-----------------|--------------------|--------------------|
-----------------|--------------------|--------------------|
--5----5----5----|--8--8--8--8--8--8--|--8--8--8--8--8--8--|
--3----3----3----|--6--6--6--6--6--6--|--6--6--6--6--6--6--|
-----------------|--------------------|--------------------|


  E  E  E  E  E  E     E  E  E  E  E  E     E  E  E  E  E  E   
--------------------|--------------------|--------------------|
--------------------|--------------------|--------------------|
--------------------|--------------------|--------------------|
--8--8--8--8--8--8--|--8--8--8--8--8--8--|--------------------|
--6--6--6--6--6--6--|--6--6--6--6--6--6--|--5--5--5--5--5--5--|
--------------------|--------------------|--3--3--3--3--3--3--|


  E  E  E  E  E  E     Q    Q    Q       Q    Q    Q       E  E  E  E  E  E   
--------------------|-----------------|-----------------|--------------------|
--------------------|-----------------|-----------------|--------------------|
--------------------|-----------------|-----------------|--------------------|
--------------------|--3----3----3----|--5----5----5----|--8--8--8--8--8--8--|
--5--5--5--5--5--5--|--1----1----1----|--3----3----3----|--6--6--6--6--6--6--|
--3--3--3--3--3--3--|-----------------|-----------------|--------------------|


  E  E  E  E  E  E     E  E  E  E  E  E     E  E  E  E  E  E   
--------------------|--------------------|--------------------|
--------------------|--------------------|--------------------|
--------------------|--------------------|--------------------|
--8--8--8--8--8--8--|--8--8--8--8--8--8--|--8--8--8--8--8--8--|
--6--6--6--6--6--6--|--6--6--6--6--6--6--|--6--6--6--6--6--6--|
--------------------|--------------------|--------------------|


  Q    Q    Q       Q    H           Q    Q    Q       Q    H         
-----------------|----------------|-----------------|----------------|
-----------------|----------------|-----------------|----------------|
-----------------|----------------|-----------------|----------------|
-----------------|----------------|-----------------|----------------|
--5----5----5----|--5-------------|--5----5----5----|--5-------------|
--3----3----3----|--3-------------|--2----2----2----|--2-------------|


  E  E  E  E  E  E     E  E  E  E  E  E     E  E  E  E  E  E   
--------------------|--------------------|--------------------|
--------------------|--------------------|--------------------|
--------------------|--------------------|--------------------|
--------------------|--------------------|--------------------|
--5--5--5--x--x--x--|--5--5--5--x--x--x--|--5--5--5--x--x--x--|
--3--3--3--x--x--x--|--3--3--3--x--x--x--|--3--3--3--x--x--x--|


  E  E  E  Q    E     E  E  E  E  E  E     E  E  E  E  E  E   
-------------------|--------------------|--------------------|
-------------------|--------------------|--------------------|
-------------------|--------------------|--------------------|
-------------------|--------------------|--------------------|
--5--5--5--3-------|--5--5--5--x--x--x--|--5--5--5--x--x--x--|
--3--3--3--1----4--|--3--3--3--x--x--x--|--3--3--3--x--x--x--|


  E  E  E  E  E  E     E  E  E  Q    E     E  E  E  E  E  E   
--------------------|-------------------|--------------------|
--------------------|-------------------|--------------------|
--------------------|-------------------|--------------------|
--------------------|-------------------|--------------------|
--5--5--5--x--x--x--|--5--5--5--3-------|--5--5--5--x--x--x--|
--3--3--3--x--x--x--|--3--3--3--1----4--|--3--3--3--x--x--x--|


  E  E  E  E  E  E     E  E  E  E  E  E     E  E  E  Q    E   
--------------------|--------------------|-------------------|
--------------------|--------------------|-------------------|
--------------------|--------------------|-------------------|
--------------------|--------------------|-------------------|
--5--5--5--x--x--x--|--5--5--5--x--x--x--|--5--5--5--3-------|
--3--3--3--x--x--x--|--3--3--3--x--x--x--|--3--3--3--1----4--|


  E  E  E  E  E  E     E  E  E  E  E  E     E  E  E  E  E  E   
--------------------|--------------------|--------------------|
--------------------|--------------------|--------------------|
--------------------|--------------------|--------------------|
--------------------|--------------------|--------------------|
--5--5--5--x--x--x--|--5--5--5--x--x--x--|--5--5--5--x--x--x--|
--3--3--3--x--x--x--|--3--3--3--x--x--x--|--3--3--3--x--x--x--|


  E  E  E  Q    E     E  E  E  Q.       
-------------------|------------------||
-------------------|------------------||
-------------------|------------------||
-------------------|------------------||
--5--5--5--3-------|--5--5--5---------||
--3--3--3--1----4--|--3--3--3---------||




Duration Legend
---------------
W - whole
H - half
Q - quarter
E - 8th
S - 16th
T - 32nd
X - 64th
. - note dotted
|-n-|  - n-tuplets


Tablature Legend
----------------
L - tied note
x - dead note
g - grace note
(n) - ghost note
> - accentuded note
NH - natural harmonic
AH - artificial harmonic
TH - tapped harmonic
SH - semi harmonic
PH - pitch harmonic
h - hammer on
p - pull off
b - bend
br - bendRelease
pb - preBend
pbr - preBendRelease
brb - bendReleaseBend
\n/ - tremolo bar dip
\n - tremolo bar dive
-/n - tremolo bar Release up
/n\ - tremolo bar inverted dip
/n - tremolo bar return
-\n - tremolo bar Release down
S - shift slide
s - legato slide
/ -  slide into from below or out of upwards
\ -  slide into from above or out of downwards
~ - vibrato
W - wide vibrato
tr - trill
TP - tremolo picking
T - tapping
S - slap
P - pop
< - fade in
^ - brush up
v - brush down






Travis


NOTE: This part is a volume swell, I'm not sure if its studio, or done with a pedal.
     W                   W                   W                 
E||-------------------|-------------------|-------------------|
B||-------------------|-------------------|-------------------|
G||-------------------|-------------------|-------------------|
D||--5----------------|--L----------------|--L----------------|
A||--5----------------|--L----------------|--L----------------|
E||--3----------------|--L----------------|--L----------------|


  W                   W                   W                   W                 
-------------------|-------------------|-------------------|-------------------|
-------------------|-------------------|-------------------|-------------------|
-------------------|-------------------|-------------------|-------------------|
--L----------------|--L----------------|--L----------------|--L----------------|
--L----------------|--L----------------|--L----------------|--L----------------|
--L----------------|--L----------------|--L----------------|--L----------------|


  W                   W                   W                   W                 
-------------------|-------------------|-------------------|-------------------|
-------------------|-------------------|-------------------|-------------------|
-------------------|-------------------|-------------------|-------------------|
--L----------------|--L----------------|--L----------------|--L----------------|
--L----------------|--L----------------|--L----------------|--L----------------|
--L----------------|--L----------------|--L----------------|--L----------------|


  W                   H.           E  E     W                 
-------------------|---------------------|-------------------|
-------------------|---------------------|-------------------|
-------------------|---------------------|-------------------|
--L----------------|--L------------------|--5----------------|
--L----------------|--L------------------|--5----------------|
--L----------------|--L------------3--3--|--3----------------|


  W                   W                   W                   W                 
-------------------|-------------------|-------------------|-------------------|
-------------------|-------------------|-------------------|-------------------|
-------------------|-------------------|-------------------|-------------------|
--L----------------|--L----------------|--L----------------|--L----------------|
--L----------------|--L----------------|--L----------------|--L----------------|
--L----------------|--L----------------|--L----------------|--L----------------|


  W                   W                   W                   W                 
-------------------|-------------------|-------------------|-------------------|
-------------------|-------------------|-------------------|-------------------|
-------------------|-------------------|-------------------|--L----------------|
--L----------------|--L----------------|--L----------------|-------------------|
--L----------------|--L----------------|--L----------------|--L----------------|
--L----------------|--L----------------|--L----------------|--L----------------|


  W                   W                   W                 
-------------------|-------------------|-------------------|
-------------------|-------------------|-------------------|
-------------------|-------------------|-------------------|
--L----------------|--L----------------|--L----------------|
--L----------------|--L----------------|--L----------------|
--L----------------|--L----------------|--L----------------|


  H.           E  E     H.              H.              H.            
---------------------|---------------|---------------|---------------|
---------------------|---------------|---------------|---------------|
---------------------|---------------|---------------|---------------|
--L------------------|--5------------|--L------------|--L------------|
--L------------------|--5------------|--L------------|--L------------|
--L------------3--3--|--3------------|--L------------|--L------------|


  H.              H.              H.              H.              H.            
---------------|---------------|---------------|---------------|---------------|
---------------|---------------|---------------|---------------|---------------|
---------------|---------------|---------------|---------------|---------------|
--L------------|--L------------|--L------------|--L------------|--L------------|
--L------------|--L------------|--L------------|--L------------|--L------------|
--L------------|--L------------|--L------------|--L------------|--L------------|


  H.              H.              H.              H.              H.            
---------------|---------------|---------------|---------------|---------------|
---------------|---------------|---------------|---------------|---------------|
---------------|---------------|---------------|---------------|---------------|
--L------------|--L------------|--L------------|--L------------|--L------------|
--L------------|--L------------|--L------------|--L------------|--L------------|
--L------------|--L------------|--L------------|--L------------|--L------------|


  H.              H.              H.              H.              H.            
---------------|---------------|---------------|---------------|---------------|
---------------|---------------|---------------|---------------|---------------|
---------------|---------------|---------------|---------------|---------------|
--L------------|--L------------|--L------------|--L------------|--L------------|
--L------------|--L------------|--L------------|--L------------|--L------------|
--L------------|--L------------|--L------------|--L------------|--L------------|


  H.              H.              H.              H.              H.            
---------------|---------------|---------------|---------------|---------------|
---------------|---------------|---------------|---------------|---------------|
---------------|---------------|---------------|---------------|---------------|
--L------------|--L------------|--L------------|--L------------|--L------------|
--L------------|--L------------|--L------------|--L------------|--L------------|
--L------------|--L------------|--L------------|--L------------|--L------------|


  H.              H.              H.              H.              H.            
---------------|---------------|---------------|---------------|---------------|
---------------|---------------|---------------|---------------|---------------|
---------------|---------------|---------------|---------------|---------------|
--L------------|--L------------|--L------------|--L------------|--L------------|
--L------------|--L------------|--L------------|--L------------|--L------------|
--L------------|--L------------|--L------------|--L------------|--L------------|


  H.              H.              H.              Q    E    Q.       
---------------|---------------|---------------|--------------------|
---------------|---------------|---------------|--------------------|
---------------|---------------|---------------|--------------------|
--L------------|--L------------|--L------------|--L-----------------|
--L------------|--L------------|--L------------|--L-----------------|
--L------------|--L------------|--L------------|--L----3/--15s------|


            PM PM              PM PM              PM PM                       
  Q    Q    E  E     Q    Q    E  E     Q    Q    E  E     E  E  E  E  E  E   
------------------|------------------|------------------|--------------------|
------------------|------------------|------------------|--------------------|
------------------|------------------|------------------|--------------------|
------------------|------------------|------------------|--------------------|
------------------|------------------|------------------|--------------------|
--3----3----3--3--|--3----3----3--3--|--3----3----3--3--|--6--6--6--5--5--5--|


            PM PM              PM PM                                          
  Q    Q    E  E     Q    Q    E  E     Q    Q    E  E     E  E  E  E  E  E   
------------------|------------------|------------------|--------------------|
------------------|------------------|------------------|--------------------|
------------------|------------------|------------------|--------------------|
------------------|------------------|------------------|-----5--------------|
--6----6----6--6--|--6----6----6--6--|--5----5----5-----|--5-----6--5--------|
------------------|------------------|---------------3--|--------------6--5--|


            PM PM              PM PM              PM PM                       
  Q    Q    E  E     Q    Q    E  E     Q    Q    E  E     E  E  E  E  E  E   
------------------|------------------|------------------|--------------------|
------------------|------------------|------------------|--------------------|
------------------|------------------|------------------|--------------------|
------------------|------------------|------------------|--------------------|
------------------|------------------|------------------|--------------------|
--3----3----3--3--|--3----3----3--3--|--3----3----3--3--|--6--6--6--5--5--5--|


            PM PM              PM PM                                          
  Q    Q    E  E     Q    Q    E  E     Q    Q    E  E     E  E  E  E  E  E   
------------------|------------------|------------------|--------------------|
------------------|------------------|------------------|--------------------|
------------------|------------------|------------------|--------------------|
------------------|------------------|------------------|-----5--------------|
--6----6----6--6--|--6----6----6--6--|--5----5----5-----|--5-----6--5--------|
------------------|------------------|---------------3--|--------------6--5--|


  Q     E   E  E   E      H.               Q     E   E  E  E   
-------11--10-----11--|--10~------------|-------11--10--------|
---------------8------|-----------------|------------------8--|
----------------------|-----------------|---------------------|
----------------------|-----------------|---------------------|
----------------------|-----------------|---------------------|
----------------------|-----------------|---------------------|


   Q    E   E   E   E     Q     E   E  E   E      H.             
--11-------10--11--13--|-------11--10-----11--|--10~------------|
--------8--------------|---------------8------|-----------------|
-----------------------|----------------------|-----------------|
-----------------------|----------------------|-----------------|
-----------------------|----------------------|-----------------|
-----------------------|----------------------|-----------------|


  Q     E   E  E  E      Q    E   E   E   E      Q     Q    Q     
-------11--10--------|--11-------10--11--13--|-------------------|
------------------8--|--------8--------------|-------------------|
---------------------|-----------------------|-------------------|
---------------------|-----------------------|---8-----8----7----|
---------------------|-----------------------|--10----10----8----|
---------------------|-----------------------|-------------------|


          PH                                                 
   Q      H             Q     Q    Q        Q    E  Q    E   
--------------------|-------------------|-------------------|
--------------------|-------------------|-------------------|
--------------------|-------------------|-------------------|
---8----<>5~--------|---8-----8----7----|---8---------------|
--10----------------|--10----10----8----|--10-------5----8--|
--------------------|-------------------|--------6----------|


   Q     Q    Q        Q    E   Q.         Q     Q     Q     
-------------------|-------------------|--------------------|
-------------------|-------------------|--------------------|
-------------------|-------------------|--------------------|
---8-----8----7----|---8----L\---------|---8-----8-----8----|
--10----10----8----|--10----L\---------|--10----10----10----|
-------------------|-------------------|--------------------|


  Q.      E  E  E      Q.     Q.         Q.     Q.         H.            
-------------------|-----------------|-----------------|----------------|
-------------------|--11------8------|----------8------|--10------------|
-------------------|-----------------|--10-------------|----------------|
--7----------------|-----------------|-----------------|----------------|
--8-------8--5--3--|-----------------|-----------------|----------------|
---------10--------|-----------------|-----------------|----------------|


  H        Q       Q.      E   E   E      Q     Q     Q     
----------------|---------------------|--------------------|
--L-------------|---------11--10------|--11----10----------|
----------------|-----------------10--|--------------10----|
----------------|---------------------|--------------------|
----------------|---------------------|--------------------|
----------------|---------------------|--------------------|


  Q.      E   E   E      Q     Q     Q        Q.     Q.         Q.     Q.      
---------------------|--------------------|-----------------|-----------------|
---------11--10------|--11----10----------|--11------8------|----------8------|
-----------------10--|--------------10----|-----------------|--10-------------|
---------------------|--------------------|-----------------|-----------------|
---------------------|--------------------|-----------------|-----------------|
---------------------|--------------------|-----------------|-----------------|


   H.              H        Q       Q.      E   E   E      Q     Q     Q     
----------------|----------------|---------------------|--------------------|
--10------------|--L-------------|---------11--10------|--11----10----------|
----------------|----------------|-----------------10--|--------------10----|
----------------|----------------|---------------------|--------------------|
----------------|----------------|---------------------|--------------------|
----------------|----------------|---------------------|--------------------|


                                                                PH             
  Q.      E   E   E      Q     Q     Q       H.                 H.             
---------------------|--------------------|----------------|------------------|
---------11--10------|--11----10----------|----------------|------------------|
-----------------10--|--------------10----|----------------|------------------|
---------------------|--------------------|----------------|--<>5~------------|
---------------------|--------------------|----------------|------------------|
---------------------|--------------------|--5b------------|------------------|


                     PH                                                       
  H.                 H.                Q     Q     Q        Q     Q     Q     
----------------|------------------|--10----------------|--10----13----------|
----------------|------------------|--------11----------|--------------11----|
----------------|------------------|--------------12----|--------------------|
----------------|--<>5~------------|--------------------|--------------------|
----------------|------------------|--------------------|--------------------|
--5b------------|------------------|--------------------|--------------------|


                                                               PH             
   Q     Q     Q        Q     Q     Q       H.                 H.             
--10----------------|--------------------|----------------|------------------|
--------11----10----|--11----10----------|----------------|------------------|
--------------------|--------------10----|----------------|------------------|
--------------------|--------------------|----------------|--<>5~------------|
--------------------|--------------------|----------------|------------------|
--------------------|--------------------|--5b------------|------------------|


                     PH                                                       
  H.                 H.                Q     Q     Q        Q     Q     Q     
----------------|------------------|--10----------------|--10----------------|
----------------|------------------|--------11----------|--------11----------|
----------------|------------------|--------------12----|--------------12----|
----------------|--<>5~------------|--------------------|--------------------|
----------------|------------------|--------------------|--------------------|
--5b------------|------------------|--------------------|--------------------|


   Q     Q     Q        Q     Q     Q       Q    Q    E  E     Q    Q    Q     
--------------------|--------------------|------------------|-----------------|
--11----10----------|--11----10----------|------------------|-----------------|
--------------10----|--------------10----|------------------|-----------------|
--------------------|--------------------|------------------|-----------------|
--------------------|--------------------|------------------|-----------------|
--------------------|--------------------|--3----3----3--6--|--5----3----6----|


  Q    Q     Q       Q    Q    Q       H.              Q     H         
------------------|-----------------|---------------|-----------------|
------------------|-----------------|---------------|-----------------|
------------------|--5----5----7----|--8------------|--L\-------------|
------------------|--x----x----x----|--x------------|-----------------|
------------------|--3----3----5----|--6------------|--L\-------------|
--3----L\---------|-----------------|---------------|-----------------|


  Q    Q    Q       Q.     Q.        Q    Q    E  E     Q    Q    Q     
-----------------|----------------|------------------|-----------------|
-----------------|----------------|------------------|-----------------|
-------5----8----|----------------|------------------|-----------------|
--7--------------|--8------7------|------------------|-----------------|
-------3----6----|----------------|------------------|-----------------|
--5--------------|--6------5------|--3----3----3--6--|--5----3----6----|


  Q    Q     Q       Q    Q    Q       H.              Q     H         
------------------|-----------------|---------------|-----------------|
------------------|-----------------|---------------|-----------------|
------------------|--5----5----7----|--8------------|--L\-------------|
------------------|--x----x----x----|--x------------|-----------------|
------------------|--3----3----5----|--6------------|--L\-------------|
--3----L\---------|-----------------|---------------|-----------------|


  Q    Q    Q       Q.     Q.         Q.      Q.        Q.      Q.      
-----------------|----------------|--10------11------|-----------------|
-----------------|----------------|------------------|--8------10------|
-------5----8----|----------------|------------------|-----------------|
--7--------------|--8------7------|------------------|-----------------|
-------3----6----|----------------|------------------|-----------------|
--5--------------|--6------5------|------------------|-----------------|


   Q.     Q.         Q.      Q.        H.              H.            
----------8------|--10--------------|---------------|---------------|
--11-------------|----------11------|--8------------|--L------------|
-----------------|------------------|---------------|---------------|
-----------------|------------------|---------------|---------------|
-----------------|------------------|---------------|---------------|
-----------------|------------------|---------------|---------------|


   Q.      Q.         Q.      Q.         H.               Q.      Q.      
------------------|------------------|----------------|--15------13------|
--11------13------|--10--------------|----------------|------------------|
------------------|----------10------|--12------------|------------------|
------------------|------------------|----------------|------------------|
------------------|------------------|----------------|------------------|
------------------|------------------|----------------|------------------|


  H.               H.               H.              H.            
--L------------|--11------------|--10------------|--L------------|
---------------|----------------|----------------|---------------|
---------------|----------------|----------------|---------------|
---------------|----------------|----------------|---------------|
---------------|----------------|----------------|---------------|
---------------|----------------|----------------|---------------|


   H.                Q.     E   E   E      H.              H.            
-----------------|---------------------|----------------|---------------|
--13b------------|--13------L------11--|--10------------|--L------------|
-----------------|-------------12------|----------------|---------------|
-----------------|---------------------|----------------|---------------|
-----------------|---------------------|----------------|---------------|
-----------------|---------------------|----------------|---------------|


  H.              H         Q       Q.      E   E   E      Q     Q     Q     
---------------|-----------------|---------------------|--------------------|
--L------------|--L\-------------|---------11--10------|--11----10----------|
---------------|-----------------|-----------------10--|--------------10----|
---------------|-----------------|---------------------|--------------------|
---------------|-----------------|---------------------|--------------------|
---------------|-----------------|---------------------|--------------------|


  Q.      E   E   E      Q     Q     Q        Q.     Q.         Q.     Q.      
---------------------|--------------------|-----------------|-----------------|
---------11--10------|--11----10----------|--11------8------|----------8------|
-----------------10--|--------------10----|-----------------|--10-------------|
---------------------|--------------------|-----------------|-----------------|
---------------------|--------------------|-----------------|-----------------|
---------------------|--------------------|-----------------|-----------------|


   H.              H        Q       Q.      E   E   E      Q     Q     Q     
----------------|----------------|---------------------|--------------------|
--10------------|--L-------------|---------11--10------|--11----10----------|
----------------|----------------|-----------------10--|--------------10----|
----------------|----------------|---------------------|--------------------|
----------------|----------------|---------------------|--------------------|
----------------|----------------|---------------------|--------------------|


                                                                PH             
  Q.      E   E   E      Q     Q     Q       H.                 H.             
---------------------|--------------------|----------------|------------------|
---------11--10------|--11----10----------|----------------|------------------|
-----------------10--|--------------10----|----------------|------------------|
---------------------|--------------------|----------------|--<>5~------------|
---------------------|--------------------|----------------|------------------|
---------------------|--------------------|--5b------------|------------------|


                     PH                                                       
  H.                 H.                Q     Q     Q        Q     Q     Q     
----------------|------------------|--10----------------|--10----13----------|
----------------|------------------|--------11----------|--------------11----|
----------------|------------------|--------------12----|--------------------|
----------------|--<>5~------------|--------------------|--------------------|
----------------|------------------|--------------------|--------------------|
--5b------------|------------------|--------------------|--------------------|


                                                               PH             
   Q     Q     Q        Q     Q     Q       H.                 H.             
--10----------------|--------------------|----------------|------------------|
--------11----10----|--11----10----------|----------------|------------------|
--------------------|--------------10----|----------------|------------------|
--------------------|--------------------|----------------|--<>5~------------|
--------------------|--------------------|----------------|------------------|
--------------------|--------------------|--5b------------|------------------|


                     PH                                                       
  H.                 H.                Q     Q     Q        Q     Q     Q     
----------------|------------------|--10----------------|--10----------------|
----------------|------------------|--------11----------|--------11----------|
----------------|------------------|--------------12----|--------------12----|
----------------|--<>5~------------|--------------------|--------------------|
----------------|------------------|--------------------|--------------------|
--5b------------|------------------|--------------------|--------------------|


   Q     Q     Q        Q     Q     Q       E  E  E  E  E  E   
--------------------|--------------------|--------------------|
--11----10----------|--11----10----------|--------------------|
--------------10----|--------------10----|--------------------|
--------------------|--------------------|--------------------|
--------------------|--------------------|--5-----------------|
--------------------|--------------------|-----3--L--3--6--5--|


  E  E  E  E  E  E     E  E  E  E  E  E     E  E  E  E  E  E   
--------------------|--------------------|--------------------|
--------------------|--------------------|--------------------|
--------------------|--------------------|--------------------|
--------------------|--------------------|-----------5--------|
--5-----------------|--5--6--5--3--5--3--|-----3--5-----6--5--|
-----3--L--3--6--5--|--------------------|--3-----------------|


  E  E  E  E  E  E     E  E  E  E  E  E     H          E  E     Q    Q    Q     
--------------------|--------------------|-------------------|-----------------|
--------------------|--------------------|-------------------|-----------------|
--------------------|--------------------|--7b---------L-----|-----------------|
--8--8--8-----8--8--|--8--8--8-----8--8--|--5br--------L-----|-----------------|
--6--6--6-----6--6--|--6--6--6-----6--6--|-------------------|--3----3----3----|
--------------------|--------------------|-------------------|--1----1----1----|


  Q    Q    E  E     E  E  E  E  E  E     E  E  E  E  E  E   
------------------|--------------------|--------------------|
------------------|--------------------|--------------------|
------------------|--------------------|--------------------|
------------------|--------------------|--------------------|
---------------3--|--5-----------------|--5--6--5--3--5--3--|
--3----6----5-----|-----6--3--6--8--6--|--------------------|


  E  E  E  E  E  E     E  E  E  E  E  E     E  E  E  E  E  E   
--------------------|--------------------|--------------------|
--------------------|--------------------|--------------------|
--------------------|--------------------|--------------------|
-----------5--------|--8--8--8-----8--8--|--8--8--8-----8--8--|
-----3--5-----6--5--|--6--6--6-----6--6--|--6--6--6-----6--6--|
--3-----------------|--------------------|--------------------|


  H          E  E     Q    Q    Q        H        E.   H        E.   
-------------------|-----------------|------------------------------|
-------------------|-----------------|----------------10--------L---|
--7b---------L-----|-----------------|--12--------L-----------------|
--5br--------L-----|-----------------|------------------------------|
-------------------|--3----3----3----|------------------------------|
-------------------|--1----1----1----|------------------------------|


   H        E.   H        E.      H        E.   H        E.   
----------------10--------L---|------------------------------|
--11--------L-----------------|----------------10--------L---|
------------------------------|--12--------L-----------------|
------------------------------|------------------------------|
------------------------------|------------------------------|
------------------------------|------------------------------|


   H        E.   H          E.      H        E.   H        E.   
--------------------------------|------------------------------|
--11--------L---10br--------L---|----------------10--------L---|
--------------------------------|--12--------L-----------------|
--------------------------------|------------------------------|
--------------------------------|------------------------------|
--------------------------------|------------------------------|


   H        E.   H        E.      H        E.   H        E.   
----------------10--------L---|------------------------------|
--11--------L-----------------|----------------10--------L---|
------------------------------|--12--------L-----------------|
------------------------------|------------------------------|
------------------------------|------------------------------|
------------------------------|------------------------------|


   H        E.   H          E.      Q.      Q.      Q       W                 
--------------------------------|------------------------|-------------------|
--11--------L---10br--------L---|------------------------|-------------------|
--------------------------------|--12------12------12----|--L----------------|
--------------------------------|------------------------|-------------------|
--------------------------------|------------------------|-------------------|
--------------------------------|------------------------|-------------------|


  Q.     Q.     Q       E  Q.     Q.     E     W                 
---------------------|----------------------|-------------------|
---------------------|----------------------|-------------------|
---------------------|----------------------|-------------------|
--1------0-----------|----------------------|-------------------|
----------------1----|--L--3------5------5--|--L----------------|
---------------------|----------------------|-------------------|


  Q.     Q.     Q       E  Q.     Q.     E     W                 
---------------------|----------------------|-------------------|
---------------------|----------------------|-------------------|
---------------------|----------------------|-------------------|
--1------0-----------|------------3------3--|--L----------------|
----------------1----|--L--3----------------|-------------------|
---------------------|----------------------|-------------------|


  Q.     Q.     Q       E  H        Q.        Q    Q    Q    Q     
---------------------|---------------------|----------------------|
---------------------|---------------------|----------------------|
---------------------|---------------------|----------------------|
--5------3-----------|-----1--------L------|--3----0--------------|
----------------5----|--L------------------|------------3----L----|
---------------------|---------------------|----------------------|


  Q    E.  E.  E.  E.     Q.     Q.     Q       W                 
-----------------------|---------------------|-------------------|
-----------------------|---------------------|-------------------|
-----------------------|---------------------|-------------------|
-------------------0---|---------------------|-------------------|
--L----L---1---3-------|---------5------5----|--L----------------|
-----------------------|--3------------------|-------------------|


  Q.     Q.     Q       E  Q.     Q.     E     W                 
---------------------|----------------------|-------------------|
---------------------|----------------------|-------------------|
---------------------|----------------------|-------------------|
--1------0-----------|----------------------|-------------------|
----------------1----|--L--3------5------5--|--L----------------|
---------------------|----------------------|-------------------|


  Q.     Q.     Q       E  Q.     Q.     E     W                 
---------------------|----------------------|-------------------|
---------------------|----------------------|-------------------|
---------------------|----------------------|-------------------|
--1------0-----------|------------3------3--|--L----------------|
----------------1----|--L--3----------------|-------------------|
---------------------|----------------------|-------------------|


  Q.     Q.     Q       E  H        Q.        Q    Q    Q    Q     
---------------------|---------------------|----------------------|
---------------------|---------------------|----------------------|
---------------------|---------------------|----------------------|
--5------3-----------|-----1--------L------|--3----0--------------|
----------------5----|--L------------------|------------3----L----|
---------------------|---------------------|----------------------|


  W                    E  E  E  E  E  E     E  E  E  E  E  E   
--------------------|--------------------|--------------------|
--------------------|--------------------|--------------------|
--------------------|--------------------|--------------------|
--------------------|--------------------|--------------------|
--Lb----------------|--------------------|--------------------|
--------------------|--3--3--3--4--3--3--|-----3--3--4--3--3--|


  E  E  E  E  E  E     E  E  E  E  E  E     E  E  E  E  E  E   
--------------------|--------------------|--------------------|
--------------------|--------------------|--------------------|
--------------------|--------------------|--------------------|
--------------------|--------------------|--------------------|
--------------------|--1-----------------|--------------------|
-----3--3--4--3--3--|-----3--0--1--4--3--|-----3--3--4--3--3--|


                                              PM PM                         
  E  E  E  E  E  E     Q    Q    Q       Q    E  E  Q       Q.      Q.      
--------------------|-----------------|------------------|-----------------|
--------------------|-----------------|------------------|---------10------|
--------------------|-----------------|------------------|-----------------|
--------------------|--6--------------|------------------|-----------------|
--------------------|--4----3----6----|--5----3--3--3----|-----------------|
-----3--3--4--3--3--|-------1----4----|--3----1--1--1----|-----------------|


   Q.      Q.         Q     H           H.               H.              
------------------|------------------|---------------|------------------|
--11------10------|------------------|---------------|------------------|
------------------|--12--------------|---------------|------------------|
------------------|--------12--------|--L------------|--11br------------|
------------------|------------------|---------------|------------------|
------------------|------------------|---------------|------------------|


   H.              H.              H.              Q     Q     Q     
----------------|---------------|---------------|--8----------------|
----------------|---------------|---------------|-------11----------|
----------------|---------------|---------------|-------------10----|
--11------------|--L------------|--L------------|-------------------|
----------------|---------------|---------------|-------------------|
----------------|---------------|---------------|-------------------|


  Q     Q     Q       Q     Q     Q       Q     Q     Q       Q     Q     Q     
--8----------------|--8----------------|--8----------------|--8----------------|
-------11----------|-------------11----|-------------11----|-------11----------|
-------------10----|-------10----------|-------10----------|-------------10----|
-------------------|-------------------|-------------------|-------------------|
-------------------|-------------------|-------------------|-------------------|
-------------------|-------------------|-------------------|-------------------|


  Q     Q     Q       Q     Q     Q       Q     Q     Q       Q     Q     Q     
--8----------------|--8----------------|--8----------------|--8----------------|
-------11----------|-------------11----|-------------11----|-------11----------|
-------------10----|-------10----------|-------10----------|-------------10----|
-------------------|-------------------|-------------------|-------------------|
-------------------|-------------------|-------------------|-------------------|
-------------------|-------------------|-------------------|-------------------|


  Q     Q     Q       Q     Q     Q       Q     Q     Q       H.            
--8----------------|--8----------------|--8----------------|--8------------|
-------11----------|-------------11----|-------------11----|---------------|
-------------10----|-------10----------|-------10----------|---------------|
-------------------|-------------------|-------------------|---------------|
-------------------|-------------------|-------------------|---------------|
-------------------|-------------------|-------------------|---------------|


  H.              H.              H.              Q.     Q.      
--L------------|---------------|---------------|----------------|
---------------|---------------|---------------|----------------|
---------------|---------------|---------------|---------3------|
---------------|--3------------|--L------------|--L-------------|
---------------|---------------|---------------|----------------|
---------------|---------------|---------------|----------------|


  Q.     Q.        H.              H.              Q.     Q.      
----------------|---------------|---------------|----------------|
----------------|---------------|---------------|----------------|
--5-------------|---------------|---------------|----------------|
----------------|---------------|---------------|----------------|
---------3------|--4------------|--L------------|--L------4------|
----------------|---------------|---------------|----------------|


  Q.     Q.        H.              H.              Q.     Q.      
----------------|---------------|---------------|----------------|
----------------|---------------|---------------|----------------|
----------------|---------------|---------------|---------3------|
----------------|---------------|---------------|----------------|
--4------3------|---------------|---------------|----------------|
----------------|--1------------|--L------------|--L-------------|


  Q.     Q.        H.              H.              Q.     Q.      
----------------|---------------|---------------|----------------|
----------------|---------------|---------------|----------------|
--5-------------|---------------|---------------|----------------|
----------------|---------------|---------------|----------------|
---------3------|--4------------|--L------------|--L------4------|
----------------|---------------|---------------|----------------|


  Q.     Q.        H.              H.              Q.     Q.      
----------------|---------------|---------------|----------------|
----------------|---------------|---------------|----------------|
----------------|---------------|---------------|----------------|
----------------|--8------------|--L------------|--L------6------|
--4------3------|--6------------|--L------------|--L-------------|
----------------|---------------|---------------|----------------|


  Q.     Q.        H.              H.              H.            
----------------|---------------|---------------|---------------|
----------------|---------------|---------------|---------------|
----------------|---------------|---------------|---------------|
--5-------------|--6------------|--L------------|--L------------|
---------6------|--8------------|--L------------|--L------------|
----------------|---------------|---------------|---------------|


  H.              H.              H.              Q.     Q.      
---------------|---------------|---------------|----------------|
---------------|---------------|---------------|----------------|
---------------|---------------|---------------|----------------|
--L------------|--8------------|--L------------|--L------6------|
--L------------|--6------------|--L------------|--L-------------|
---------------|---------------|---------------|----------------|


  Q.     Q.        H.              Q     H           E  E  E  E  E  E   
----------------|---------------|-----------------|--------------------|
----------------|---------------|-----------------|--------------------|
----------------|---------------|-----------------|--6--5--------------|
--5-------------|--6------------|--L\-------------|--------8--6--5-----|
---------6------|--8------------|--L\-------------|-----------------8--|
----------------|---------------|-----------------|--------------------|


  E  E  E  E  E  E     Q.     Q.     Q       W                 
--------------------|---------------------|-------------------|
--------------------|---------------------|-------------------|
--------------------|---------------------|-------------------|
--8--6--5-----------|---------------------|-------------------|
-----------8--6--5--|---------5------5----|--L----------------|
--------------------|--3------------------|-------------------|


  Q.     Q.     Q       E  Q.     Q.     E     W                 
---------------------|----------------------|-------------------|
---------------------|----------------------|-------------------|
---------------------|----------------------|-------------------|
--1------0-----------|----------------------|-------------------|
----------------1----|--L--3------5------5--|--L----------------|
---------------------|----------------------|-------------------|


  Q.     Q.     Q       E  Q.     Q.     E     W                 
---------------------|----------------------|-------------------|
---------------------|----------------------|-------------------|
---------------------|----------------------|-------------------|
--1------0-----------|------------3------3--|--L----------------|
----------------1----|--L--3----------------|-------------------|
---------------------|----------------------|-------------------|


  Q.     Q.     Q       E  H        Q.        Q    Q    Q    Q     
---------------------|---------------------|----------------------|
---------------------|---------------------|----------------------|
---------------------|---------------------|----------------------|
--5------3-----------|-----1--------L------|--3----0--------------|
----------------5----|--L------------------|------------3----L----|
---------------------|---------------------|----------------------|


  Q    E.  E.  E.  E.     Q.     Q.     Q       W                 
-----------------------|---------------------|-------------------|
-----------------------|---------------------|-------------------|
-----------------------|---------------------|-------------------|
-------------------0---|---------------------|-------------------|
--L----L---1---3-------|---------5------5----|--L----------------|
-----------------------|--3------------------|-------------------|


  Q.     Q.     Q       E  Q.     Q.     E     W                 
---------------------|----------------------|-------------------|
---------------------|----------------------|-------------------|
---------------------|----------------------|-------------------|
--1------0-----------|----------------------|-------------------|
----------------1----|--L--3------5------5--|--L----------------|
---------------------|----------------------|-------------------|


  Q.     Q.     Q       E  Q.     Q.     E     W                 
---------------------|----------------------|-------------------|
---------------------|----------------------|-------------------|
---------------------|----------------------|-------------------|
--1------0-----------|------------3------3--|--L----------------|
----------------1----|--L--3----------------|-------------------|
---------------------|----------------------|-------------------|


  Q.     Q.     Q       E  H        Q.        Q    Q    Q    Q     
---------------------|---------------------|----------------------|
---------------------|---------------------|----------------------|
---------------------|---------------------|----------------------|
--5------3-----------|-----1--------L------|--3----0--------------|
----------------5----|--L------------------|------------3----L----|
---------------------|---------------------|----------------------|


  W                    E  E  E  Q.        E  E  E  Q.        E  E  E  Q.      
--------------------|------------------|------------------|------------------|
--------------------|------------------|------------------|------------------|
--------------------|------------------|------------------|------------------|
--------------------|--5--5--5---------|--5--5--5---------|--5--5--5---------|
--Lb----------------|--5--5--5---------|--5--5--5---------|--5--5--5---------|
--------------------|--3--3--3---------|--3--3--3---------|--3--3--3---------|


  E  E  E  Q.        E  E  E  Q.        E  E  E  Q.        E  E  E  Q.      
------------------|------------------|------------------|------------------|
------------------|------------------|------------------|------------------|
------------------|------------------|------------------|------------------|
--5--5--5---------|--5--5--5---------|--5--5--5---------|--5--5--5---------|
--5--5--5---------|--5--5--5---------|--5--5--5---------|--5--5--5---------|
--3--3--3---------|--3--3--3---------|--3--3--3---------|--3--3--3---------|


  E  E  E  Q.        E  E  E  Q.        E  E  E  Q.        E  E  E  Q.      
------------------|------------------|------------------|------------------|
------------------|------------------|------------------|------------------|
------------------|------------------|------------------|------------------|
--5--5--5---------|--5--5--5---------|--5--5--5---------|--5--5--5---------|
--5--5--5---------|--5--5--5---------|--5--5--5---------|--5--5--5---------|
--3--3--3---------|--3--3--3---------|--3--3--3---------|--3--3--3---------|


  E  E  E  Q.        E  E  E  Q.        E  E  E  Q.        E  E  E  Q.      
------------------|------------------|------------------|------------------|
------------------|------------------|------------------|------------------|
------------------|------------------|------------------|------------------|
--5--5--5---------|--5--5--5---------|--5--5--5---------|--5--5--5---------|
--5--5--5---------|--5--5--5---------|--5--5--5---------|--5--5--5---------|
--3--3--3---------|--3--3--3---------|--3--3--3---------|--3--3--3---------|


  E  E  E  Q.                                                              
------------------|-------|-------|-------|-------|-------|-------|-------|
------------------|-------|-------|-------|-------|-------|-------|-------|
------------------|-------|-------|-------|-------|-------|-------|-------|
--5--5--5---------|-------|-------|-------|-------|-------|-------|-------|
--5--5--5---------|-------|-------|-------|-------|-------|-------|-------|
--3--3--3---------|-------|-------|-------|-------|-------|-------|-------|


-------|-------|-------|-------|-------|-------|-------|-------|
-------|-------|-------|-------|-------|-------|-------|-------|
-------|-------|-------|-------|-------|-------|-------|-------|
-------|-------|-------|-------|-------|-------|-------|-------|
-------|-------|-------|-------|-------|-------|-------|-------|
-------|-------|-------|-------|-------|-------|-------|-------|


  Q.      Q.         H.              H.              H.            
---------11------|--10------------|--L------------|--L------------|
-----------------|----------------|---------------|---------------|
-----------------|----------------|---------------|---------------|
-----------------|----------------|---------------|---------------|
-----------------|----------------|---------------|---------------|
-----------------|----------------|---------------|---------------|


  H        Q       Q.      E   E   E      Q     Q     Q     
--L-------------|---------------------|--------------------|
----------------|---------11--10------|--11----10----------|
----------------|-----------------10--|--------------10----|
----------------|---------------------|--------------------|
----------------|---------------------|--------------------|
----------------|---------------------|--------------------|


  Q.      E   E   E      Q     Q     Q        Q.     Q.         Q.     Q.      
---------------------|--------------------|-----------------|-----------------|
---------11--10------|--11----10----------|--11------8------|----------8------|
-----------------10--|--------------10----|-----------------|--10-------------|
---------------------|--------------------|-----------------|-----------------|
---------------------|--------------------|-----------------|-----------------|
---------------------|--------------------|-----------------|-----------------|


   H.              H        Q       Q.      E   E   E      Q     Q     Q     
----------------|----------------|---------------------|--------------------|
--10------------|--L-------------|---------11--10------|--11----10----------|
----------------|----------------|-----------------10--|--------------10----|
----------------|----------------|---------------------|--------------------|
----------------|----------------|---------------------|--------------------|
----------------|----------------|---------------------|--------------------|


                                                                PH             
  Q.      E   E   E      Q     Q     Q       H.                 H.             
---------------------|--------------------|----------------|------------------|
---------11--10------|--11----10----------|----------------|------------------|
-----------------10--|--------------10----|----------------|------------------|
---------------------|--------------------|----------------|--<>5~------------|
---------------------|--------------------|----------------|------------------|
---------------------|--------------------|--5b------------|------------------|


                     PH                                                       
  H.                 H.                Q     Q     Q        Q     Q     Q     
----------------|------------------|--10----------------|--10----13----------|
----------------|------------------|--------11----------|--------------11----|
----------------|------------------|--------------12----|--------------------|
----------------|--<>5~------------|--------------------|--------------------|
----------------|------------------|--------------------|--------------------|
--5b------------|------------------|--------------------|--------------------|


                                                               PH             
   Q     Q     Q        Q     Q     Q       H.                 H.             
--10----------------|--------------------|----------------|------------------|
--------11----10----|--11----10----------|----------------|------------------|
--------------------|--------------10----|----------------|------------------|
--------------------|--------------------|----------------|--<>5~------------|
--------------------|--------------------|----------------|------------------|
--------------------|--------------------|--5b------------|------------------|


                     PH                                                       
  H.                 H.                Q     Q     Q        Q     Q     Q     
----------------|------------------|--10----------------|--10----------------|
----------------|------------------|--------11----------|--------11----------|
----------------|------------------|--------------12----|--------------12----|
----------------|--<>5~------------|--------------------|--------------------|
----------------|------------------|--------------------|--------------------|
--5b------------|------------------|--------------------|--------------------|


   Q     Q     Q        Q     Q     Q        H.             
--------------------|--------------------|--13b------------|
--11----10----------|--11----10----------|-----------------|
--------------10----|--------------10----|-----------------|
--------------------|--------------------|-----------------|
--------------------|--------------------|-----------------|
--------------------|--------------------|-----------------|


   Q     Q     Q        E   E   H           H         E   E      H.            
--13----11----10----|--11--10------------|-------------------|----------------|
--------------------|----------11--------|--L--------11--13--|----------------|
--------------------|--------------------|-------------------|--14------------|
--------------------|--------------------|-------------------|----------------|
--------------------|--------------------|-------------------|----------------|
--------------------|--------------------|-------------------|----------------|


  H         E   E      H.              H         Q        H.             
-------------------|----------------|-----------------|--13b------------|
-----------10--11--|----------------|-----------------|-----------------|
--L----------------|--12------------|--L\-------------|-----------------|
-------------------|----------------|-----------------|-----------------|
-------------------|----------------|-----------------|-----------------|
-------------------|----------------|-----------------|-----------------|


   Q     Q     Q        E   E   H           H         E   E      H.            
--13----11----10----|--11--10------------|-------------------|----------------|
--------------------|----------11--------|--L--------11--13--|----------------|
--------------------|--------------------|-------------------|--14------------|
--------------------|--------------------|-------------------|----------------|
--------------------|--------------------|-------------------|----------------|
--------------------|--------------------|-------------------|----------------|


  H        Q        H.              H         Q       E  E  E  E  E  E   
----------------|----------------|-----------------|--------------------|
----------------|----------------|-----------------|--------------------|
--L-------------|--12------------|--L\-------------|--------------------|
----------------|----------------|-----------------|--8--8--8--8--8--8--|
----------------|----------------|-----------------|--6--6--6--6--6--6--|
----------------|----------------|-----------------|--------------------|


  E  E  E  E  E  E     E  E  E  E  E  E     E  E  E  E  E  E   
--------------------|--------------------|--------------------|
--------------------|--------------------|--------------------|
--------------------|--------------------|--------------------|
--8--8--8--8--8--8--|--8--8--8--8--8--8--|--8--8--8--8--8--8--|
--6--6--6--6--6--6--|--6--6--6--6--6--6--|--6--6--6--6--6--6--|
--------------------|--------------------|--------------------|


  E  E  E  E  E  E     E  E  E  E  E  E     Q    Q    Q       Q    Q    Q     
--------------------|--------------------|-----------------|-----------------|
--------------------|--------------------|-----------------|-----------------|
--------------------|--------------------|-----------------|-----------------|
--------------------|--------------------|--3----3----3----|--5----5----5----|
--5--5--5--5--5--5--|--5--5--5--5--5--5--|--1----1----1----|--3----3----3----|
--3--3--3--3--3--3--|--3--3--3--3--3--3--|-----------------|-----------------|


  E  E  E  E  E  E     E  E  E  E  E  E     E  E  E  E  E  E   
--------------------|--------------------|--------------------|
--------------------|--------------------|--------------------|
--------------------|--------------------|--------------------|
--8--8--8--8--8--8--|--8--8--8--8--8--8--|--8--8--8--8--8--8--|
--6--6--6--6--6--6--|--6--6--6--6--6--6--|--6--6--6--6--6--6--|
--------------------|--------------------|--------------------|


  E  E  E  E  E  E     Q    Q    Q       Q    H           Q    Q    Q     
--------------------|-----------------|----------------|-----------------|
--------------------|-----------------|----------------|-----------------|
--------------------|-----------------|----------------|-----------------|
--8--8--8--8--8--8--|-----------------|----------------|-----------------|
--6--6--6--6--6--6--|--5----5----5----|--5-------------|--5----5----5----|
--------------------|--3----3----3----|--3-------------|--2----2----2----|


  Q    H           E  E  E  E  E  E     E  E  E  E  E  E     E  E  E  E  E  E   
----------------|--------------------|--------------------|--------------------|
----------------|--------------------|--------------------|--------------------|
----------------|--------------------|--------------------|--------------------|
----------------|--------------------|--------------------|--------------------|
--5-------------|--5--5--5--------3--|--5--5--5--5--------|--5--5--5--5--3-----|
--2-------------|--3--3--3--3--6-----|--3--3--3-----6--3--|--3--3--3--------6--|


  E  E  E  Q    E     E  E  E  E  E  E     E  E  E  E  E  E   
-------------------|--------------------|--------------------|
-------------------|--------------------|--------------------|
-------------------|--------------------|--------------------|
-------------------|--------------------|--------------------|
--3--------3-------|--5--5--5--------3--|--5--5--5--5--------|
-----6--3--1----4--|--3--3--3--3--6-----|--3--3--3-----6--3--|


  E  E  E  E  E  E     E  E  E  Q    E     E  E  E  E  E  E   
--------------------|-------------------|--------------------|
--------------------|-------------------|--------------------|
--------------------|-------------------|--------------------|
--------------------|-------------------|--------------------|
--5--5--5--5--3-----|--3--------3-------|--5--5--5--------3--|
--3--3--3--------6--|-----6--3--1----4--|--3--3--3--3--6-----|


  E  E  E  E  E  E     E  E  E  E  E  E     E  E  E  Q    E   
--------------------|--------------------|-------------------|
--------------------|--------------------|-------------------|
--------------------|--------------------|-------------------|
--------------------|--------------------|-------------------|
--5--5--5--5--------|--5--5--5--5--3-----|--3--------3-------|
--3--3--3-----6--3--|--3--3--3--------6--|-----6--3--1----4--|


  E  E  E  E  E  E     E  E  E  E  E  E     E  E  E  E  E  E   
--------------------|--------------------|--------------------|
--------------------|--------------------|--------------------|
--------------------|--------------------|--------------------|
--------------------|--------------------|--------------------|
--5--5--5--------3--|--5--5--5--5--------|--5--5--5--5--3-----|
--3--3--3--3--6-----|--3--3--3-----6--3--|--3--3--3--------6--|


  E  E  E  Q    E     E  E  E  Q.       
-------------------|------------------||
-------------------|------------------||
-------------------|------------------||
-------------------|------------------||
--3--------3-------|--5--5--5---------||
-----6--3--1----4--|--3--3--3---------||







Zach



G||-------|-------|-------|-------|-------|-------|-------|-------|-------|
D||-------|-------|-------|-------|-------|-------|-------|-------|-------|
A||-------|-------|-------|-------|-------|-------|-------|-------|-------|
E||-------|-------|-------|-------|-------|-------|-------|-------|-------|


-------|-------|-------|-------|-------|-------|-------|-------|-------|-------|
-------|-------|-------|-------|-------|-------|-------|-------|-------|-------|
-------|-------|-------|-------|-------|-------|-------|-------|-------|-------|
-------|-------|-------|-------|-------|-------|-------|-------|-------|-------|


-------|-------|-------|-------|-------|-------|-------|-------|-------|-------|
-------|-------|-------|-------|-------|-------|-------|-------|-------|-------|
-------|-------|-------|-------|-------|-------|-------|-------|-------|-------|
-------|-------|-------|-------|-------|-------|-------|-------|-------|-------|


-------|-------|-------|-------|-------|-------|-------|-------|-------|-------|
-------|-------|-------|-------|-------|-------|-------|-------|-------|-------|
-------|-------|-------|-------|-------|-------|-------|-------|-------|-------|
-------|-------|-------|-------|-------|-------|-------|-------|-------|-------|


-------|-------|-------|-------|-------|-------|-------|-------|-------|-------|
-------|-------|-------|-------|-------|-------|-------|-------|-------|-------|
-------|-------|-------|-------|-------|-------|-------|-------|-------|-------|
-------|-------|-------|-------|-------|-------|-------|-------|-------|-------|


-------|-------|-------|-------|-------|-------|-------|-------|-------|
-------|-------|-------|-------|-------|-------|-------|-------|-------|
-------|-------|-------|-------|-------|-------|-------|-------|-------|
-------|-------|-------|-------|-------|-------|-------|-------|-------|


  Q    Q    E  E     Q    Q    E  E     Q    Q    E  E     E  E  E  E  E  E   
------------------|------------------|------------------|--------------------|
------------------|------------------|------------------|--------------------|
------------------|------------------|------------------|--------------------|
--3----3----3--3--|--3----3----3--3--|--3----3----3--3--|--6--6--6--5--5--5--|


  Q    Q    E  E     Q    Q    E  E     Q    Q    E  E     E  E  E  E  E  E   
------------------|------------------|------------------|--------------------|
------------------|------------------|------------------|-----5--------------|
--6----6----6--6--|--6----6----6--6--|--5----5----5--5--|--5-----6--5--------|
------------------|------------------|------------------|--------------6--5--|


  Q    Q    E  E     Q    Q    E  E     Q    Q    E  E     E  E  E  E  E  E   
------------------|------------------|------------------|--------------------|
------------------|------------------|------------------|--------------------|
------------------|------------------|------------------|--------------------|
--3----3----3--3--|--3----3----3--3--|--3----3----3--3--|--6--6--6--5--5--5--|


  Q    Q    E  E     Q    Q    E  E     Q    Q    E  E     E  E  E  E  E  E   
------------------|------------------|------------------|--------------------|
------------------|------------------|------------------|-----5--------------|
--6----6----6--6--|--6----6----6--6--|--5----5----5--5--|--5-----6--5--------|
------------------|------------------|------------------|--------------6--5--|


  Q    Q    E  E     Q    Q    E  E     Q    Q    E  E     E  E  E  E  E  E   
------------------|------------------|------------------|--------------------|
------------------|------------------|------------------|--------------------|
------------------|------------------|------------------|--------------------|
--3----3----3--3--|--3----3----3--3--|--3----3----3--3--|--6--6--6--5--5--5--|


  Q    Q    E  E     Q    Q    E  E     Q    Q    E  E     E  E  E  E  E  E   
------------------|------------------|------------------|--------------------|
------------------|------------------|------------------|-----5--------------|
--6----6----6--6--|--6----6----6--6--|--5----5----5--5--|--5-----6--5--------|
------------------|------------------|------------------|--------------6--5--|


   Q     Q    E   E     Q    Q    Q        Q.     Q    E     Q    Q    E  E   
---------------------|------------------|-----------------|------------------|
---------------------|--8----5----L\----|-----------------|-------5----------|
--10----10----8--10--|------------------|---------8----5--|--8---------8--5--|
---------------------|------------------|-----------------|------------------|


  Q    Q    E  E     Q    Q    E  E     Q    Q    E  E     E  E  E  E  E  E   
------------------|------------------|------------------|--------------------|
------------------|------------------|------------------|-----5--3-----------|
--6----6----6--6--|--6----6----6--6--|--5----5----5--5--|--3--------5-----5--|
------------------|------------------|------------------|--------------5-----|


  E  E  E  E  E  E     E  E  E  E  E  E     E  E  E  E  E  E   
--------------------|--------------------|--------------------|
-----------8--7-----|--7--5-----8--7-----|-----------8--7-----|
--6--6--6--------6--|--------6--------6--|--6--6--6--------6--|
--------------------|--------------------|--------------------|


  E  E  E  E  E  E     E  E  E  E  E  E     E  E  E  E  E  E   
--------------------|--------------------|--------------------|
--7-----------------|--------------------|--------------------|
-----6--6--6--6--6--|--------------------|-----5--------------|
--------------------|--3--3--3--3--3--3--|--3-----3--6--5--3--|


  E  E  E  E  E  E     E  E  E  E  E  E     E  E  E  E  E  E   
--------------------|--------------------|--------------------|
--------------------|--------------------|-----------8--7-----|
--------------5-----|--3--3--3--3--1--3--|--6--6--6--------6--|
--6--6--6--6-----6--|--------------------|--------------------|


  E  E  E  E  E  E     E  E  E  E  E  E     E  E  E  E  E  E   
--------------------|--------------------|--------------------|
--7--5-----8--7-----|-----------8--7-----|--7-----------7-----|
--------6--------6--|--6--6--6--------6--|-----6--6--6-----6--|
--------------------|--------------------|--------------------|


  E  E  E  E  E  E     E  E  E  E  E  E     E  E  E  E  E  E   
--------------------|--------------------|--------------------|
--------------------|--------------------|--------------------|
--------------------|--------------------|--1--1--1--1--1--1--|
--3--3--3--3--3--3--|--3--3--3--3--3--3--|--------------------|


  E  E  E  E  E  E     E  E  E  E  E  E     E  E  E  E  E  E   
--------------------|--------------------|--------------------|
--------------------|--------------------|--------------------|
--3--3--3--3--3--3--|--6--6--6--6--6--6--|--6--6--6--6--6--6--|
--------------------|--------------------|--------------------|


  E  E  E  E  E  E     E  E  E  E  E  E     E  E  E  E  E  E   
--------------------|--------------------|--------------------|
--------------------|--------------------|--------------------|
--6--6--6--5--5--5--|--8--8--8--6--6--6--|--------------------|
--------------------|--------------------|--3--3--3--3--3--3--|


  E  E  E  E  E  E     E  E  E  E  E  E     E  E  E  E  E  E   
--------------------|--------------------|--------------------|
--------------------|--------------------|--------------------|
--------------------|--------------------|--3--3--3--3--3--3--|
--3--3--3--3--3--3--|--6--6--6--6--6--6--|--------------------|


  E  E  E  E  E  E       E   E   E   E   E   E     E  E  E  E  E  E   
---------------------|--------------------------|--------------------|
---------------------|--------------------------|--------------------|
--6--6--6--6--6--6s--|--18--18--18--18--18--18--|--6--6--6--5--5--5--|
---------------------|--------------------------|--------------------|


  E  E  E  E  E  E     E  E  E  E  E  E     E  E  E  E  E  E   
--------------------|--------------------|--------------------|
--------------------|--------------------|--------------------|
--3--3--3--1--1--1--|--------------------|--------------------|
--------------------|--3--3--3--3--3--3--|--3--3--3--3--3--3--|


  E  E  E  E  E  E     E  E  E  E  E  E     Q    Q    E  E     Q    Q    Q     
--------------------|--------------------|------------------|-----------------|
--------------------|--------------------|------------------|-----------------|
--------------------|--------------------|------------------|-----------------|
--2--2--2--2--2--2--|--2--2--2--2--2--2--|--3----3----3--6--|--5----3----6----|


  Q    Q     Q       Q    Q    Q       H.              Q     Q.     E   
------------------|-----------------|---------------|------------------|
------------------|-----------------|---------------|------------------|
------------------|--3----3----5----|--6------------|--6\-----------5--|
--3----3\---------|-----------------|---------------|------------------|


  Q    Q    Q       Q.     Q.        Q    Q    E  E     Q    Q    Q     
-----------------|----------------|------------------|-----------------|
-----------------|----------------|------------------|-----------------|
-------3----6----|----------------|------------------|-----------------|
--5--------------|--6------5------|--3----3----3--6--|--5----3----6----|


  Q    Q     Q       Q    Q    Q       H.              Q     Q.     E   
------------------|-----------------|---------------|------------------|
------------------|-----------------|---------------|------------------|
------------------|--3----3----5----|--6------------|--6\-----------5--|
--3----3\---------|-----------------|---------------|------------------|


  Q    Q    Q       Q.     Q.        E  E  E  E  E  E     E  E  E  E  E  E   
-----------------|----------------|--------------------|--------------------|
-----------------|----------------|--5--5--5--5--5--5--|--5--5--5--5--5--5--|
-------3----6----|----------------|--------------------|--------------------|
--5--------------|--6------5------|--------------------|--------------------|


  E  E  E  E  E  E     E  E  E  E  E  E     E  E  E  E  E  E   
--------------------|-----5-----3--3--3--|--------------------|
--3--3--3--3--3--3--|--3-----3-----------|--------------------|
--------------------|--------------------|--6--6--6--6--6--6--|
--------------------|--------------------|--------------------|


  E  E  E  E  E  E     E  E  E  E  E  E     E  E  E  E  E  E   
--------------------|--------------------|--------------------|
--------------------|--------------------|--------------------|
--6--6--6--6--6--6--|--3--3--3--3--3--3--|--5--5--5--5--5--5--|
--------------------|--------------------|--------------------|


  E  E  E  E  E  E     E  E  E  E  E  E     E  E  E  E  E  E   
--------------------|-----3-----3-----3--|--------------------|
--5--5--5--5--5--5--|--5-----5-----5-----|--3--3--3--3--3--3--|
--------------------|--------------------|--------------------|
--------------------|--------------------|--------------------|


  E  E  E  E  E  E     E  E  E  E  E  E     E  E  E  E  E  E   
-----5-----3--3--3--|--------------------|--------------------|
--3-----3-----------|--------------------|--------------------|
--------------------|--6--6--6--6--6--6--|--6--6--6--6--6--6--|
--------------------|--------------------|--------------------|


  E  E  E  E  E  E     E  E  E  E  E  E     E  E  E  E  E  E   
--------------------|--------------------|--------------------|
--------------------|--------------------|-----------8--7-----|
--3--3--3--3--3--3--|--5--5--5--5--5--5--|--6--6--6--------6--|
--------------------|--------------------|--------------------|


  E  E  E  E  E  E     E  E  E  E  E  E     E  E  E  E  E  E   
--------------------|--------------------|--------------------|
--7--5-----8--7-----|-----------8--7-----|--7-----------------|
--------6--------6--|--6--6--6--------6--|-----6--6--6--6--6--|
--------------------|--------------------|--------------------|


  E  E  E  E  E  E     E  E  E  E  E  E     E  E  E  E  E  E   
--------------------|--------------------|--------------------|
--------------------|--------------------|--------------------|
--------------------|-----5--------------|--------------5-----|
--3--3--3--3--3--3--|--3-----3--6--5--3--|--6--6--6--6-----6--|


  E  E  E  E  E  E     E  E  E  E  E  E     E  E  E  E  E  E   
--------------------|--------------------|--------------------|
--------------------|-----------8--7-----|--7--5-----8--7-----|
--3--3--3--3--1--3--|--6--6--6--------6--|--------6--------6--|
--------------------|--------------------|--------------------|


  E  E  E  E  E  E     E  E  E  E  E  E     E  E  E  E  E  E   
--------------------|--------------------|--------------------|
-----------8--7-----|--7-----------7-----|--------------------|
--6--6--6--------6--|-----6--6--6-----6--|--------------------|
--------------------|--------------------|--3--3--3--3--3--3--|


  E  E  E  E  E  E     Q    Q    Q       Q    Q    Q       E  E  E  E  E  E   
--------------------|-----------------|-----------------|--------------------|
--------------------|-----------------|-----------------|--------------------|
--------------------|-----------------|--3----3----3----|--6--6--6--6--6--6--|
--3--3--3--3--3--3--|--6----6----6----|-----------------|--------------------|


  E  E  E  E  E  E     E  E  E  E  E  E     E  E  E  E  E  E   
--------------------|--------------------|--------------------|
--------------------|--------------------|--------------------|
--6--6--6--6--6--6--|--6--6--6--6--6--6--|--6--6--6--6--6--6--|
--------------------|--------------------|--------------------|


  E  E  E  E  E  E     E  E  E  E  E  E     E  E  E  E  E  E   
--------------------|--------------------|--------------------|
--------------------|--------------------|--------------------|
--------------------|--------------------|--------------8-----|
--3--3--3--3--3--3--|--3--3--3--3--3--3--|--6--6--6--6-----6--|


  E  E  E  E  E  E     E  E  E  E  E  E       E   E   E   E   E   E   
--------------------|---------------------|--------------------------|
--------------------|---------------------|--------------------------|
--3--3--3--3--1--3--|--6--6--6--6--6--6s--|--18--18--18--18--18--18--|
--------------------|---------------------|--------------------------|


  E  E  E  E  E  E     E  E  E  E  E  E     E  E  E  E  E  E   
--------------------|--------------------|--------------------|
--------------------|--------------------|--------------------|
--6--6--6--6--6--6--|--8--8--8--6--6--6--|--------------------|
--------------------|--------------------|--3--3--3--3--3--3--|


  E  E  E  E  E  E     E  E  E  E  E  E     E  E  E  E  E  E   
--------------------|--------------------|--------------------|
--------------------|--------------------|--------------------|
--------------------|--------------------|--------------------|
--3--3--3--3--3--3--|--2--2--2--2--2--2--|--2--2--2--2--2--2--|


  E  Q    E  E  E     E  Q    E  E  E     E  E  E  E  E  E   
-------------------|-------------------|--------------------|
-------------------|-------------------|--------------------|
--5----------------|--5----------------|--5--6--5--3--5--3--|
-----3----3--6--5--|-----3----3--6--5--|--------------------|


  E  E  E  E  E  E     E  E  E  E  E  E     E  E  E  E  E  E   
--------------------|--------------------|--------------------|
-----------5--------|--------------------|--------------------|
-----3--5-----6--5--|--6--6--6-----6--6--|--6--6--6-----6--6--|
--3-----------------|--------------------|--------------------|


  H          E  E     Q    Q    Q       Q    E  Q    E     Q    E  Q    E   
-------------------|-----------------|------------------|------------------|
--5br--------L-----|-----------------|------------------|------------------|
-------------------|-----------------|---------------3--|--5----6--5-------|
-------------------|--1----1----1----|--3----5--6-------|---------------6--|


  Q    E  Q    E     Q    E  Q    E     E  E  E  E  E  E     E  E  E  E  E  E   
------------------|------------------|--------------------|--------------------|
------------------|------------------|--------------------|--------------------|
------------------|------------------|--6--6--6-----6--6--|--6--6--6-----6--6--|
--3----5--3----1--|--3----1--3----1--|--------------------|--------------------|


  H          E  E     Q    Q    Q       Q    E.  S S E  Q    E.  S S E   
-------------------|-----------------|----------------------------------|
--5br--------L-----|-----------------|----------------------------------|
-------------------|-----------------|--6----6---0-5-3--6----6---0-5-3--|
-------------------|--1----1----1----|----------------------------------|


  Q    E.  S S E  Q    S Q    E     Q    E.  S S E  H        E.   
---------------------------------|-------------------------------|
---------------------------------|-------------------------------|
--6----6---0-5-3--6----3-5----3--|--3----3---1-3----3--------L---|
---------------------------------|---------------3---------------|


  Q    E.  S S E  S Q    S E  E.     Q    E.  S S E  Q    E.  S S E   
----------------------------------|----------------------------------|
------------------3-5-------------|----------------------------------|
--3----3---1-3-----------3----3---|--6----6---0-5-3--6----6---0-5-3--|
---------------3-----------3------|----------------------------------|


  Q    E.  S S E  Q    S Q    E     Q    E.  S S E  H        E.   
---------------------------------|-------------------------------|
---------------------------------|-------------------------------|
--6----6---0-5-3--6----3-5----3--|--3----3---1-3----3--------L---|
---------------------------------|---------------3---------------|


  Q    E.  S S E  S E  E.  Q    S    Q.     Q.     Q       W                 
----------------------------------|---------------------|-------------------|
------------------3-5------0----L-|---------------------|-------------------|
--3----3---1-3---------3----------|---------------------|-------------------|
---------------3------------------|--3------3------3----|--L----------------|


  Q.     Q.     Q       E  Q.     Q.     E     W                 
---------------------|----------------------|-------------------|
--1------0-----------|----------------------|-------------------|
----------------1----|--L--1------1------1--|--L----------------|
---------------------|----------------------|-------------------|


  Q.     Q.     Q       E  Q.     Q.     E     W                 
---------------------|----------------------|-------------------|
--1------0-----------|-----1------1------1--|--L----------------|
----------------1----|--L-------------------|-------------------|
---------------------|----------------------|-------------------|


  Q.     Q.     Q       E  H        Q.        Q    Q    Q    Q     
---------------------|---------------------|----------------------|
--5------3-----------|-----1--------L------|--3----0--------------|
----------------5----|--L------------------|------------3----L----|
---------------------|---------------------|----------------------|


  Q    E.  E.  E.  E.     Q.     Q.     Q       W                 
-----------------------|---------------------|-------------------|
-------------------0---|---------------------|-------------------|
--L----L---1---3-------|---------------------|-------------------|
-----------------------|--3------3------3----|--L----------------|


  Q.     Q.     Q       E  Q.     Q.     E     W                 
---------------------|----------------------|-------------------|
--1------0-----------|----------------------|-------------------|
----------------1----|--L--1------1------1--|--L----------------|
---------------------|----------------------|-------------------|


  Q.     Q.     Q       E  Q.     Q.     E     W                 
---------------------|----------------------|-------------------|
--1------0-----------|-----1------1------1--|--L----------------|
----------------1----|--L-------------------|-------------------|
---------------------|----------------------|-------------------|


  Q.     Q.     Q       E  H        Q.        Q    Q    Q    Q     
---------------------|---------------------|----------------------|
--5------3-----------|-----1--------L------|--3----0--------------|
----------------5----|--L------------------|------------3----L----|
---------------------|---------------------|----------------------|


  W                   E  E  E  E  E  E     E  E  E  E  E  E   
-------------------|--------------------|--------------------|
-------------------|--------------------|--------------------|
--L----------------|--------------------|--------------------|
-------------------|--3--3--3--4--3--3--|-----3--3--4--3--3--|


  E  E  E  E  E  E     E  E  E  E  E  E     E  E  E  E  E  E   
--------------------|--------------------|--------------------|
--------------------|--------------------|--------------------|
--------------------|--1-----------------|--------------------|
-----3--3--4--3--3--|-----3--0--1--4--3--|-----3--3--4--3--3--|


  E  E  E  E  E  E     Q    Q    Q       Q    E  E  Q       E  E  E  E  E  E   
--------------------|-----------------|------------------|--------------------|
--------------------|-----------------|------------------|--------------------|
--------------------|--4--------------|------------------|--------------------|
-----3--3--4--3--3--|-------1----4----|--3----1--1--1----|--3--3--3--4--3--3--|


  E  E  E  E  E  E     E  E  E  E  E  E     E  E  E  E  E  E   
--------------------|--------------------|--------------------|
--------------------|--------------------|--------------------|
--------------------|--------------------|--1-----------------|
-----3--3--4--3--3--|-----3--3--4--3--3--|-----3--0--1--4--3--|


  E  E  E  E  E  E     E  E  E  E  E  E     Q    Q    Q       Q    E  E  Q     
--------------------|--------------------|-----------------|------------------|
--------------------|--------------------|-----------------|------------------|
--------------------|--------------------|--4--------------|------------------|
-----3--3--4--3--3--|-----3--3--4--3--3--|-------1----4----|--3----1--1--1----|


  H.              Q    Q    Q       H.              Q    Q    Q     
---------------|-----------------|---------------|-----------------|
---------------|-----------------|---------------|-----------------|
--4------------|--4----3---------|---------------|-------3----4----|
---------------|------------4----|--6------------|--6--------------|


  H.              Q    Q    Q       H.              Q    Q    Q     
---------------|-----------------|---------------|-----------------|
---------------|-----------------|---------------|-----------------|
---------------|-----------------|--1------------|--1---------6----|
--1------------|--1----3----4----|---------------|-------4---------|


  H.              Q    Q    Q       H.              Q    Q    Q     
---------------|-----------------|---------------|-----------------|
---------------|-----------------|---------------|-----------------|
--4------------|--4----3---------|---------------|-------3----4----|
---------------|------------4----|--6------------|--6--------------|


  H.              H.              Q    Q    Q       E  E  E  E  E  E   
---------------|---------------|-----------------|--5-----------------|
---------------|---------------|-----------------|-----6--3-----6--5--|
--3------------|--L------------|--3--------------|-----------3--------|
---------------|---------------|-------1---------|--------------------|


  Q    Q    Q       E  E  E  E  E  E     Q    Q    Q       E  E  E  E  E  E   
-----------------|--5-----------------|-----------------|--6-----------------|
-----------------|-----6--3-----6--5--|-----------------|-----6--3-----6--5--|
--3--------------|-----------3--------|--4--------------|-----------3--------|
-------1---------|--------------------|-------1---------|--------------------|


  Q    Q    Q       E  E  E  E  E  E     Q    Q    Q       E  E  E  E  E  E   
-----------------|--6--5-----5--------|-----------------|--5-----------------|
-----------------|--------8-----8--6--|-----------------|-----6--3-----6--5--|
--4--------------|--------------------|--3--------------|-----------3--------|
-------1---------|--------------------|-------1---------|--------------------|


  Q    Q    Q       E  E  E  E  E  E     Q    Q    Q       E  E  E  E  E  E   
-----------------|--5-----------------|-----------------|--6-----------------|
-----------------|-----6--3-----6--5--|-----------------|-----6--3-----6--5--|
--3--------------|-----------3--------|--4--------------|-----------3--------|
-------1---------|--------------------|-------1---------|--------------------|


  Q    Q    Q       E  E  E  E  E  E     H.              H.            
-----------------|--6--5-----5--------|---------------|---------------|
-----------------|--------8-----8--6--|---------------|---------------|
--4--------------|--------------------|--6------------|--L------------|
-------1---------|--------------------|---------------|---------------|


  H.              H.              H.              H.              H.            
---------------|---------------|---------------|---------------|---------------|
---------------|---------------|---------------|---------------|---------------|
--L------------|--L------------|--4------------|--L------------|--L------------|
---------------|---------------|---------------|---------------|---------------|


  H.              H.              H.              H.              H.            
---------------|---------------|---------------|---------------|---------------|
---------------|---------------|---------------|---------------|---------------|
--L------------|--6------------|--L------------|--L------------|--L------------|
---------------|---------------|---------------|---------------|---------------|


  H.              H.              E  E  E  E  E  E     E  E  E  E  E  E   
---------------|---------------|--6--5--------------|--------------------|
---------------|---------------|--------8--6--5-----|--8--6--5-----------|
--4------------|--L------------|-----------------8--|-----------8--6--5--|
---------------|---------------|--------------------|--------------------|


  Q.     Q.     Q       W                   Q.     Q.     Q     
---------------------|-------------------|---------------------|
---------------------|-------------------|--1------0-----------|
---------------------|-------------------|----------------1----|
--3------3------3----|--L----------------|---------------------|


  E  Q.     Q.     E     W                   Q.     Q.     Q     
----------------------|-------------------|---------------------|
----------------------|-------------------|--1------0-----------|
--L--1------1------1--|--L----------------|----------------1----|
----------------------|-------------------|---------------------|


  E  Q.     Q.     E     W                   Q.     Q.     Q     
----------------------|-------------------|---------------------|
-----1------1------1--|--L----------------|--5------3-----------|
--L-------------------|-------------------|----------------5----|
----------------------|-------------------|---------------------|


  E  H        Q.        Q    Q    Q    Q       Q    E.  E.  E.  E.   
---------------------|----------------------|-----------------------|
-----1--------L------|--3----0--------------|-------------------0---|
--L------------------|------------3----L----|--L----L---1---3-------|
---------------------|----------------------|-----------------------|


  Q.     Q.     Q       W                   Q.     Q.     Q     
---------------------|-------------------|---------------------|
---------------------|-------------------|--1------0-----------|
---------------------|-------------------|----------------1----|
--3------3------3----|--L----------------|---------------------|


  E  Q.     Q.     E     W                   Q.     Q.     Q     
----------------------|-------------------|---------------------|
----------------------|-------------------|--1------0-----------|
--L--1------1------1--|--L----------------|----------------1----|
----------------------|-------------------|---------------------|


  E  Q.     Q.     E     W                   Q.     Q.     Q     
----------------------|-------------------|---------------------|
-----1------1------1--|--L----------------|--5------3-----------|
--L-------------------|-------------------|----------------5----|
----------------------|-------------------|---------------------|


  E  H        Q.        Q    Q    Q    Q       W                 
---------------------|----------------------|-------------------|
-----1--------L------|--3----0--------------|-------------------|
--L------------------|------------3----L----|--L----------------|
---------------------|----------------------|-------------------|


  E  E  E  Q.        E  E  E  Q.        E  E  E  Q.        E  E  E  Q.      
------------------|------------------|------------------|------------------|
------------------|------------------|------------------|------------------|
------------------|------------------|------------------|------------------|
--3--3--3---------|--3--3--3---------|--3--3--3---------|--3--3--3---------|


  E  E  E  Q.        E  E  E  Q.        E  E  E  Q.        E  E  E  Q.      
------------------|------------------|------------------|------------------|
------------------|------------------|------------------|------------------|
------------------|------------------|------------------|------------------|
--3--3--3---------|--3--3--3---------|--3--3--3---------|--3--3--3---------|


  E  E  E  Q.        E  E  E  Q.        E  E  E  Q.        E  E  E  Q.      
------------------|------------------|------------------|------------------|
------------------|------------------|------------------|------------------|
------------------|------------------|------------------|------------------|
--3--3--3---------|--3--3--3---------|--3--3--3---------|--3--3--3---------|


  E  E  E  Q.        E  E  E  Q.        E  E  E  Q.        E  E  E  Q.      
------------------|------------------|------------------|------------------|
------------------|------------------|------------------|------------------|
------------------|------------------|------------------|------------------|
--3--3--3---------|--3--3--3---------|--3--3--3---------|--3--3--3---------|


  H        Q                                                Q    Q    E  E   
-----------------|-------|-------|-------|-------|-------|------------------|
-----------------|-------|-------|-------|-------|-------|------------------|
--6--------L\----|-------|-------|-------|-------|-------|------------------|
-----------------|-------|-------|-------|-------|-------|--3----3----3--3--|


  Q    Q    E  E     H        Q                H.              H.            
------------------|-----------------|-------|---------------|---------------|
------------------|-----------------|-------|---------------|---------------|
------------------|--6--------L\----|-------|--3------------|--L------------|
--3----3----3--3--|-----------------|-------|---------------|---------------|


  E  E  E  E  E  E     E  E  E  E  E  E     E  E  E  E  E  E   
--------------------|--------------------|--------------------|
--------------------|--------------------|--------------------|
--5--5--5--5--5--5--|--5--5--5--5--5--5--|--5--5--5--5--5--5--|
--------------------|--------------------|--------------------|


  E  E  E  E  E  E     Q    E  E  E  E     Q    Q    E  E     Q    E  E  E  E   
--------------------|-------------------|------------------|-------------------|
--------------------|----------8--7-----|--7---------8--7--|----------8--7-----|
--5--5--5--5--5--5--|--6----6--------6--|-------6----------|--6----6--------6--|
--------------------|-------------------|------------------|-------------------|


  Q    Q    E  E     Q    E  E  E  E     Q    Q    E  E     E  E  E  E  E  E   
------------------|-------------------|------------------|--------------------|
--7---------8--7--|-------------------|------------------|--------------------|
-------6----------|-------------------|--1---------------|--------------5-----|
------------------|--3----3-----1--3--|-------3----1--3--|--6--6--6--6-----6--|


  E  E  E  E  E  E     Q    E  E  E  E     Q    Q    E  E     Q    E  E  E  E   
--------------------|-------------------|------------------|-------------------|
--------------------|----------8--7-----|--7---------8--7--|----------8--7-----|
--3--3--3--3--1--3--|--6----6--------6--|-------6----------|--6----6--------6--|
--------------------|-------------------|------------------|-------------------|


  Q    Q    E  E     E  E  E  E  E  E     E  E  E  E  E  E     Q    Q    Q     
------------------|--------------------|--------------------|-----------------|
--7---------8--7--|--------------------|--------------------|-----------------|
-------6----------|--------------------|--------------------|--1----1----1----|
------------------|--3--3--3--3--3--3--|--3--3--3--3--3--3--|-----------------|


  Q    Q    Q       E  E  E  E  E  E     E  E  E  E  E  E   
-----------------|--------------------|--------------------|
-----------------|--------------------|--------------------|
--3----3----3----|--6--6--6--6--6--6--|--6--6--6--6--6--6--|
-----------------|--------------------|--------------------|


  E  E  E  E  E  E     E   E  E  E  E  E     E  E  E  E  E  E   
--------------------|---------------------|--------------------|
--------------------|---------------------|--------------------|
--6--6--6--6--6--6--|--8--10--8--6--5-----|--------------------|
--------------------|------------------6--|--3--3--3--3--3--3--|


  E  E  E  E  E  E     E  E  E  E  E  E     E  E  E  E  E  E   
--------------------|--------------------|--------------------|
--------------------|--------------------|--------------------|
--------------------|--------------------|--------------------|
--3--3--3--3--3--3--|--6--6--6--6--6--6--|--8--8--8--8--8--8--|


  E  E  E  E  E  E     E  E  E  E  E  E     E  E  E  E  E  E   
--------------------|--------------------|--------------------|
--------------------|--8-----------------|--------------------|
--6--6--6--6--6--6--|-----6--6--6--6--6--|--6--6--6--6--6--6--|
--------------------|--------------------|--------------------|


  E  E  E  E  E  E     E  E  E  E  E  E     E  E  E  E  E  E   
--------------------|--------------------|--------------------|
--------------------|--------------------|--------------------|
--8--8--8--5--5--5--|--------------------|--------------------|
--------------------|--3--3--3--3--3--3--|--3--3--3--3--3--3--|


  E  E  E  E  E  E     E  E  E  E  E  E     E  E  E  E  E  E   
--------------------|--------------------|--------------------|
--------------------|--------------------|--------------------|
--------------------|--------------------|--6--6--6--6--6--6--|
--2--2--2--2--2--2--|--2--2--2--2--2--2--|--------------------|


  E  E  E  E  E  E     E  E  E  E  E  E     E  E  E  E  E  E   
--------------------|--------------------|--------------------|
--------------------|-----------5--------|--------------------|
--6--6--6--6--6--6--|--6--6--6-----6--6--|--6--6--5--3--------|
--------------------|--------------------|--------------6--5--|


  E  E  E  E  E  E     E  E  E  E  E  E     Q    Q    Q       Q    Q    Q     
--------------------|--------------------|-----------------|-----------------|
--------------------|--------------------|-----------------|-----------------|
--------------------|--------5-----------|--1----1----1----|--3----3----3----|
--3--3--3--3--3--3--|--3--3-----3--6--5--|-----------------|-----------------|


  E  E  E  E  E  E     E  E  E  E  E  E     E  E  E   E  E   E   
--------------------|--------------------|--5------------8------|
--------------------|-----------5--8--5--|-----5--8--10-----10--|
--6--6--6--6--6--6--|--6--6--6-----------|----------------------|
--------------------|--------------------|----------------------|


   E   E   E   E   E   E     Q    Q    Q       H        Q       Q    Q    Q     
--12--10------15--12------|-----------------|----------------|-----------------|
----------13----------13--|-----------------|----------------|-----------------|
--------------------------|-----------------|----------------|-----------------|
--------------------------|--3----3----3----|--3-------------|--6----6----6----|


  Q    Q    Q       E  E  E  E  E  E     E  E  E  E  E  E   
-----------------|--------------------|--------------------|
-----------------|--------------------|--------------------|
-----------------|--6--6--6--6--6--6--|--6--6--6--6--6--6--|
--8----8----8----|--------------------|--------------------|


  E  E  E  E  E  E     E  E  E  E  E  E     E  E  E  E  E  E   
--------------------|--------------------|--------------------|
--------------------|--5-----------------|--------------------|
--6--6--------6--8--|-----8--6--5--------|--------------------|
--------6--8--------|--------------8--6--|--3--3--3--3--3--3--|


  E  E  E  E  E  E     Q    Q    Q       Q    Q    Q       E  E  E  E  E  E   
--------------------|-----------------|-----------------|--------------------|
--------------------|-----------------|-----------------|--------------------|
--------------------|-----------------|-----------------|--6--6--6--6--6--6--|
--3--3--3--3--3--3--|--6----6----6----|--8----8----8----|--------------------|


  E  E  E  E  E  E     E  E  E  E  E  E     E  E  E  E  E  E   
--------------------|--------------------|--------------------|
--------------------|--------------------|--------------------|
--6--6--6--6--6--6--|--6--6--6--5--5--5--|--3--3--3--1--1--1--|
--------------------|--------------------|--------------------|


  Q    Q    Q       H        Q       Q    Q    Q       Q    H         
-----------------|----------------|-----------------|----------------|
-----------------|----------------|-----------------|----------------|
-----------------|----------------|-----------------|----------------|
--3----3----3----|--3-------------|--2----2----2----|--2-------------|


  E  E  E  Q.        E  E  E  Q.        E  E  E  Q.        E  E  E  Q    E   
------------------|------------------|------------------|-------------------|
------------------|------------------|------------------|-------------------|
------------------|------------------|------------------|-------------------|
--3--3--3---------|--3--3--3---------|--3--3--3---------|--3--3--3--1----4--|


  E  E  E  Q.        E  E  E  Q.        E  E  E  Q.        E  E  E  Q    E   
------------------|------------------|------------------|-------------------|
------------------|------------------|------------------|-------------------|
------------------|------------------|------------------|-------------------|
--3--3--3---------|--3--3--3---------|--3--3--3---------|--3--3--3--1----4--|


  E  E  E  Q.        E  E  E  Q.        E  E  E  Q.        E  E  E  Q    E   
------------------|------------------|------------------|-------------------|
------------------|------------------|------------------|-------------------|
------------------|------------------|------------------|-------------------|
--3--3--3---------|--3--3--3---------|--3--3--3---------|--3--3--3--1----4--|


  E  E  E  Q.        E  E  E  Q.        E  E  E  Q.        E  E  E  Q    E   
------------------|------------------|------------------|-------------------|
------------------|------------------|------------------|-------------------|
------------------|------------------|------------------|-------------------|
--3--3--3---------|--3--3--3---------|--3--3--3---------|--3--3--3--1----4--|


  E  E  E  Q.       
------------------||
------------------||
------------------||
--3--3--3---------||
Добавлено: 30.08.2013
Другие материалы по этой песне:
  • Аккорды и текст

Страница создана 30.08.2013
http://primanota.ru/coheed-and-cambria/the-key-entity-extraction-i-domino-the-destitute-chords.htm
Привет, Гость.
Предлагаем пройти революционный курс по гитаре.
Подарок от PrimaNota.Ru, забирай!