PrimaNota.ru - самый крупный в мире бесплатный архив песенных текстов, аккордов, табулатур и нот


Coheed & Cambria - The Final Cut - текст песни, таба, видео

Регистрация Запомнить меня
Войти через:  Facebook Google Twitter Vk Yandex Mail.ru

Coheed & Cambria - The Final Cut - текст песни, таба, видео

Печатать
Просмотров: 140
Уроки эстрадного вокала в Санкт-Петербурге
The Willing well IV: The Final Cut
By: Coheed and Cambria

(Eb,Ab,Db,Gb,Bb,Eb)

INTRO
 Em                      C                   Em
e---------------------|-------------------|--------------------------|
b---------------------|--------8-10^-10---|--15-12-------------------|
g------14-12-11-------|------9----------9-|--------15-14-12----------|
d--/14----------14-12-X4--10--------------X4----------------14-12-14-X4
a---------------------|-------------------|--------------------------|
E---------------------|-------------------|--------------------------|
  C                               VERSE:  Em (Palm muted)
e-----------------|---------------------|--------3------|
b------8-10^-10---|--15^--15^-12--------|----------0----|
g----9----------9-|--------------12-----|------0--------|
d-10--------------X3----------------14--|----2-------2--X4
a-----------------|---------------------|---------------|
E-----------------|---------------------|--0------------|
  C  (P.M)                          3   Release mute
e--------------|-------------------||---------------|---------------|
b--------0-1---|------0-------0----||---------------|---0------0----|
g------0-----0-|--------0-------0--||------0-4-4^0--|-----0------0--|
d----2---------X3--2-------4-------||----2----------|-2------4------|
a--3-----------|---3-------5-------||--3------------|-3------5------|
E--------------|-------------------||---------------|---------------|
  Em               C
e---------------|---------------|----------------|
b------0---0----|---------------|----------------|
g----0---0------|-------0-4-4^0-|------0-----0---|
d-------------2-X4----2---------X3---5-----7-----|
a---------------|---3-----------|--3-----5-------|
E--0------------|---------------|----------------|
  SOLOS
e----------------------------|--------------|
b------15--------------------|--------------|
g--14^----14^12--------------|--------------|
d---------------14--14p12----|-12----14\----|
a-------------------------14-|--------------|
E----------------------------|--------------|

e----------------------------|---------------------------|
b------15--------------------|---------------------------|
g--14^----14^12--------------|---------------------------|
d---------------14--14p12----|-12----14-12-14~-14--------|
a-------------------------14-|---------------------------|
E----------------------------|---------------------------|

e--22^--22^--20-19-10-19--22^--^22-20-19-20--------------|
b-------------------------------------------20-----------|
g--------------------------------------------------------|
d--------------------------------------------------------|
a--------------------------------------------------------|
E--------------------------------------------------------|

e--------------------------------------------------------|
b--------------------------------------------------------|
g--------------------------------------------------------|
d---------------------------------------12-14-14---------|
a------------12-14-12-12----------12/14------------------|
E--/15-14-15-------------15-14-15------------------------|

e--------------------------------------------------------------|
b------12h15p12-----12h15p12-----12h15p12----------------------|
g--14^----------14^----------14^----------14^12----12h14p12----|
d-----------------------------------------------14----------14-|
a--------------------------------------------------------------|
E--------------------------------------------------------------|

e---------|--------|--------|--------|------------------|------|
b---------|--------|--------|--------|------------------|------|
g---------|--------|--------|--------|-----~~~----------|------|
d--14^----|--------|--------|--------|--14^----14p12-14-|-14---|
a---------|--------|--12~~~-|--------|------------------|------|
E---------|--------|--------|--------|------------------|------|
     0.---------0.     0.-----------0.
e------------------------------------|-------------------------|
b--15-12-----------------------------|-------12----------------|
g--------14-12-11-12--11h12p11-------|----14----14-14h16^------|
d------------------------------14-14-|-14----------------------|
a------------------------------------|-------------------------|
E------------------------------------|-------------------------|

e-------------|-----------15-15^~-|
b-------------|-14^---/17---------|
g---16~~~-14^-|-14^---------------|
d-------------|-------------------|
a-------------|-------------------|
E-------------|-------------------|
 Clean 
e-------12------12\-|------------------------|-----------------|
b----12-----15--12\-|------------------------|-----------------|
g-14----------------|--------12-14-^14p12----|-12-14-^14-12----|
d-------------------|--12-14--------------14-|--------------14-|
a-------------------|------------------------|-----------------|
E-------------------|------------------------|-----------------|

e---------------|----------------------------------------|
b---------------|----------------------------------------|
g--12h14p12-----|----------------------------------------|
d-----------14\-|-12h14p12----12-------------------------|
a---------------|----------14----14-13-12\10----10-12~~--|
E---------------|----------------------------12----------|

e-----------------|------------------------------------------|
b-----------------|--------------12--------------------------|
g-----------------|-----------12----12-----------------------|
d-----------------|-----12h14----------14-16\14------12------|
a-12^-10------10\-|----------------------------14-15----15p14|
E--------12~~-----|--15--------------------------------------|
                                     3:44
e-----------------|---------------||-------------------------|
b-----------------|----------12~~-||---^17---15h17-----------|
g---------12---14-|--11~----------||----------------14~~-----|
d-----------------|---------------||-------------------------|
a---------10---12-|--9~~----------||-------------------------|
E--15--x----------|---------------||-------------------------|
    (19)  (19)
e--17^----17^-----|--15-17------15\--------15-|----------------------|
b-----------------|--------17~~------15h17----|-15-17-19-15----------|
g-----------------|---------------------------|-------------16-16~~\-|
d-----------------|---------------------------|----------------------|
a-----------------|---------------------------|----------------------|
E-----------------|---------------------------|----------------------|

e----------------------------------|-------------------------------------|
b--12h13-13^--13^p12----12-13------|-------------------------------------|
g--------------------14-------14~~-|-------12-14-^14p12---12-14-12-------|
d----------------------------------|-12-14--------------14---------14-12-|
a----------------------------------|-------------------------------------|
E----------------------------------|-------------------------------------|
                               H
e------------------------------||----------------------------------------|
b------------------------------||-------------12-------------------------|
g------------------------------||-------------12-------------------------|
d----------------------------12||-14-14-14-14----14\-16-16-16-12-12-12---|
a-15-14-12---------------------||----------------------------------------|
E----------15-14-12-12p10-12---||----------------------------------------|

e----------------------------------r|-----------------------------|
b----------------------------------e|-15^-13-12-13-12h13p12~~-15^-|
g----------------------------------p|-----------------------------|
d--14-14-14------------------------e|-----------------------------|
a-----------15-15-15-14-14-14-12~\-a|-----------------------------|
E----------------------------------t|-----------------------------|
                      (17)         (19)
e-15----------------|------------------15h17-17^-17-17-17-17\----||
b----^15----12------|-15^---15h17--17^---------------------------||
g--------14----12~~-|--------------------------------------------||
d-------------------|--------------------------------------------||
a-------------------|--------------------------------------------||
E-------------------|--------------------------------------------||
 4:29
e-------12-----12-------------|-------------------12-------------|
b-12h13----12-----12----15----|----------12----12----12----15----|
g--------------------14----14-|-12-12-11----11----------14----14-|
d-----------------------------|----------------------------------|
a-----------------------------|----------------------------------|
E-----------------------------|----------------------------------|

e-------------------|---------------|----------------------------|
b----13-------12----|---------------|----------------------------|
g-12----12-11----11-|---------------|----------------------------|
d-------------------|-14----14/16-14\12--12\10--9----------------|
a-------------------|---------------|----------------------------|
E-------------------|---------------|----------------------------|
  HIDDEN TRACK !!  double drop D, all 1/2 step flat
e----------0-------|------------|------------------|-------0-----|
b------------0-----|------------|------------------|-------------|
g--------0-----0---|-4\2p0------|---------0--------|-0-------7\3p0
d--0h4h5---------5-|-------0h2--|-0-----0---0------|---5/8-------|
a------------------|------------|---5h7-------7p5--|-------------|
E------------------|------------|------------------|-------------|
Добавлено: 09.04.2012
Другие материалы по этой песне:
  • Аккорды и текст

Страница создана 09.04.2012
http://primanota.ru/coheed-and-cambria/the-final-cut-chords.htm
Привет, Гость.
Предлагаем пройти революционный курс по гитаре.
Подарок от PrimaNota.Ru, забирай!