PrimaNota.ru - самый крупный в мире бесплатный архив песенных текстов, аккордов, табулатур и нот


Coheed & Cambria - The End Complete - таба, видео

Регистрация Запомнить меня
Войти через:  Facebook Google Twitter Vk Yandex Mail.ru

Coheed & Cambria - The End Complete - таба, видео

Печатать
Просмотров: 98
Coheed and Cambria
"The End Complete"
Tabbed by Larry Jones

I spent a decent amount of time on this tab; I think it's pretty accurate.
I hope everyone enjoys it.  Somone feel free to turn this into a guitarpro tab or 
just give me some credit.

Key:
/ - slide
. - palm mute
t - finger tap and pull off
p - pull off
h - hammer on
~ - vibrato
* - pinch harmonic
b - bend to sound like following note
r - relase bend

Intro & 1st Verse:

Claudio & Travis:
e|----------------------------------------------------|
B|----------------------------------------------------|
G|---.......---..............--.......--....----------|
D|--99999999--9-9-9-9-9-9-9-9-99999999-77777-777------|
A|--77777777-1010101010101010-88888888-88888-555------|
E|----------------------------------------------------|

on the verse riff leading to the chorus play:
e|----------------------------------------------------|
B|----------------------------------------------------|
G|---.......---..............--.......--.......-------|
D|--99999999--9-9-9-9-9-9-9-9-99999999-77777777-------|
A|--77777777-1010101010101010-88888888-88888888-------|
E|----------------------------------------------------|

2nd Verse Lead (1:16) - Travis: (heavily palm-muted)
e|----------------------------------------------------|
B|-----------------.--.--.-.--.-------.---------------|
G|--------.--------9-11-12-9-11--.--.-9---------------| listen closely for
D|-.-.--.-7-.-.--.--------------12-12-----------------| the timing
A|-7-9-10---9-9-10------------------------------------|
E|----------------------------------------------------|

e|----------------------------------------------------|
B|---------------------------.--.--.--.--.-.----------|
G|-.--.-.--.-.--.-.---.--.-.-9-12/14-12-11-9----------|
D|-9-10-9-10-9-10-9---9-10-9--------------------------|
A|----------------------------------------------------|
E|----------------------------------------------------|

Chorus:

Claudio:
e|----------------------------------------------------|
B|----------------------------------------------------|
G|----------------------------------------------------|
D|----------------------------------------------------|
A|-10---2----10---2----5--9---------------------------|
E|-8----0----8----0----3--7---------------------------|

Chorus - Travis:
e|-------------------------------------------------------------------|
B|-..-7-.-8-.-10-.-8-.-7-.--8-7------..-7-.-8-.-10-.-8-.-7-.--8-7----|
G|-99---9---9----9---9---9-----9~----99---9---9----9---9---9-----9/7-|
D|-------------------------------------------------------------------|
A|-------------------------------------------------------------------|
E|-------------------------------------------------------------------|

Interlude (2:10):

Claudio:
e|-----------------------------------------|
B|-----------------------------------------|
G|--...............---...............------|
D|-5555555555555555--5555555555555555------|
A|-7777777777777777--3333333333333333------|
E|-----------------------------------------|

Travis:
e|-----------------------------------------|
B|----8-7---------8-7-----8-7--------------|
G|-/7-----9-7---7-----9-7-----9-7/---------|
D|-----------------------------------------|
A|-----------------------------------------|
E|-----------------------------------------|

Break (2:23):

Claudio:
e|-----------------------------------------|
B|-----------------------------------------|
G|-----------------------------------------|
D|-----------------------------------------|
A|-2------2-2---4-5-9-10----1010----10/----|
E|-0------0-0---2-3-7-8-----8-8-----8/-----|

Travis:
e|---------------12--10--8-----------------|
B|-..-8-..-10-..---..--..--.---------------|
G|-99---99----99---99--99--9---------------|
D|-----------------------------------------|
A|-----------------------------------------|
E|-----------------------------------------|

Interlude 2 (2:49) & (3:30):

Claudio:
e|---------------------------------------------------------|
B|---------------------------------------------------------|
G|---------------------------------------------------------|
D|-10/9---------10/9---------10/9--------------------------|
A|-8-/7-......--8-/7-......--8-/7-......--10/9---10---7/9--|
E|------000000-------000000-------000000--8-/7-0-8--0-5/7--|

Travis:
e|-------------------------------------------------------------|
B|-------------------------------------------------------------|
G|-------------------------------------------------------------|
D|-------10--------------10-------------10---------------------|
A|-8/7-8---8-7-8~-8/7-8----8-7----8/7-8---8-7-8~---------------|
E|-----------------------------8~----------------8/7-0-8-0-5/7-|

Interlude 3 (3:16) & (3:56):

Claudio & Travis:

e|---------------------------------------------------------|
B|---------------------------------------------------------|
G|---------------------------------------------------------|
D|--------5---4----------5---4----------5---4--------------|
A|-4-4--4---4---4--44--4---5---4--44--4---4---4--4-5-7-9---|
E|-2-2-------------22-------------22-------------2-3-5-7---|


Solo (4:09):

Claudio:
e|----------------------------------------------------------------------|
B|-.-.-.-.---------.-.-.-.---------.-.-.-.---------.-.-.-.--------------|
G|-2-4-0-2-.-.-----2-4-0-2-.-.-----2-4-0-2-.-.-----2-4-0-2-.-.-2h4p2-0--|
D|---------4-0-.-.---------4-0-.-.---------4-0-.-.---------4-0----------|
A|-------------3-2-------------3-2-------------3-2----------------------|
E|----------------------------------------------------------------------|

Travis:
e|----------------------------------------------------------------------|
B|-/12~-10~---------------------/12~-13~-15~-10~------10-12-13-12-15----|
G|----------12~-11--------------------------------12--------------------|
D|-----------------12---------------------------------------------------|
A|--------------------12-12*--------------------------------------------|
E|----------------------------------------------------------------------|

e|----------------------------------------------------------------------|
B|-15b17-15b17~---12----12h13p12----12h13p12----12-13-12~---------------|
G|-------------------14----------14----------14-------------------------|
D|----------------------------------------------------------------------|
A|----------------------------------------------------------------------|
E|----------------------------------------------------------------------|

                             t           t           t           t
e|-15b17r15---15b17r15---12h15(17)x5-12h15(19)x6-12h15(20)x6-12h15(22)x6|
B|---------12~-------12~------------------------------------------------|
G|----------------------------------------------------------------------|
D|----------------------------------------------------------------------|
A|----------------------------------------------------------------------|
E|----------------------------------------------------------------------|

Third Verse Lead - Travis (4:35):

e|------------------------------------------------------|
B|-10-8-10-8-10-8-10-8----------------------------------|
G|---------------------10-9-10-9-10-9-10-9--------------|
D|------------------------------------------------------|
A|------------------------------------------------------|
E|------------------------------------------------------|

Alt Chorus 1 (5:27):

Travis & Claudio:

e|------------------------------------------------------|
B|------------------------------------------------------|
G|------------------------------------------------------|
D|-----........----........................----........-|
A|-10--10101010-10-101010101010101010101010-10-10101010-|
E|-8---8-8-8-8--8--8-8-8-8-8-8-8-8-8-8-8-8--8--8-8-8-8--|

e|------------------------------------------------------|
B|------------------------------------------------------|
G|------------------------------------------------------|
D|-----....-----............-----....-------------------|
A|-2---2222--2--222222222222--2--2222-------------------|
E|-0---0000--0--000000000000--0--0000-------------------|

Alt Chrous 2 (5:54):

Claudio:
e|-----------------------------------------|
B|-----------------------------------------|
G|-----------------------------------------|
D|-----------------------------------------|
A|-10-----2-2------10-----22------10-----22|
E|-8------0-0------8------00------8------00|

Outro (6:15):


Claudio:
e|--------------------------------------------------|
B|-0------0------0------0---------0-----------0-----| hard to hear but I
G|---0------0------0------0-----0---0-------0---0---| think this is what
D|----------------------------0-------0---0-------0-| is going on
A|--------------------------3-----------3-----------|
E|--------------------------------------------------|


Travis:
e|----------------------------------------|
B|-12-------12~---12-------12~/-----------|
G|----------------------------------------|
D|----10-12----------10-12----------------|
A|----------------------------------------|
E|----------------------------------------|

e|-------0-------------------0------------|
B|-----8---8---------------8---8----------|
G|-7/9-------9-7-7/9/--7/9-------7-7-7/9/-|
D|----------------------------------------|
A|----------------------------------------|
E|----------------------------------------|

e|----------------------------------------|
B|----------------------------------------|
G|-4~---5~---7~---9~---11-11h12~----------|
D|----------------------------------------|
A|----------------------------------------|
E|----------------------------------------|
Добавлено: 30.07.2012
Другие материалы по этой песне:

Страница создана 05.07.2012
http://primanota.ru/coheed-and-cambria/the-end-complete-chords.htm
Привет, Гость.
Предлагаем пройти революционный курс по гитаре.
Подарок от PrimaNota.Ru, забирай!