PrimaNota.ru - самый крупный в мире бесплатный архив песенных текстов, аккордов, табулатур и нот


Coheed & Cambria - The Crowing - текст песни, таба, бас-таба, видео

Регистрация Запомнить меня
Войти через:  Facebook Google Twitter Vk Yandex Mail.ru

Coheed & Cambria - The Crowing - текст песни, таба, бас-таба, видео

Печатать
Просмотров: 199
-----------------------------------------------------------------------------
                             The Crowing
                          Coheed And Cambria
-----------------------------------------------------------------------------
Tabbed by:Coheedandnofx6
AIM:warxall0thextime

Tuning: Standard
        
            Both Guitars      ::INTRO AND VERSE::
e|--------------------------------------------------------------------------|
B|--------------------------------------------------------------------------|
G|--------------------------------------------------------------------------|
D|--5-5--5-5--5-5--5-5--4-4--4-4--4-4--4-4--4-4--4-4--4-4--4-4--5-5--5-5----|
A|--7-7--7-7--7-7--7-7--7-7--7-7--7-7--7-7--5-5--5-5--5-5--5-5--3-3--3-3----|
E|--------------------------------------------------------------------------|
   
e|-----------------------| The ending is played palm muted except for  
B|-----------------------| first time. 
G|-----------------------|
D|-----------------------|
A|--3-2-0------5---------|
E|---------3-2-----------|
   

                           ::CHORUS::
  Rhythm Guitar
e|---------------------------------------------------------|
B|---------------------------------------------------------|The bend is full
G|--------0--------0----------0-4b-0-----0-4b-0------------|on the last time.
D|------4--------4----------5----------5-------------------|
A|----2--------2-----5----3----------3---------------------|
E|--0--------0---------------------------------------------|
  
  Lead Guitar
A.
e|--------------------------|
B|--------------------------|(2x)
G|--------12h14p12----------|
D|--12h14----------12-14b---|
A|--------------------------|
E|--------------------------|
B.
e|-------------------------------------------------|(2x)
B|-----13p12----15p12----17p12----15p12----13p12---|
G|--12-------12-------12-------12-------12---------|
D|-------------------------------------------------| 
A|-------------------------------------------------|
E|-------------------------------------------------|

Play A, B, then A again.


"And I Walk Through The Door..."(I couldnt figure out lead)
e|-----------------------------------------------------------------|
B|-----------------------------------------------------------------|
G|--5--5-5-5--5-5-5--5-5------------7--7-7-7--7-7-7--7-7--7--------|
D|--5--5-5-5--5-5-5--5-5------------7--7-7-7--7-7-7--7-7--7--4-----|
A|--3--3-3-3--3-3-3--3-3--2-2-2-2---5--5-5-5--5-5-5--5-5--5--5-----|
E|------------------------0-0-0-0----------------------------------|

"Would I Come As Before?..."
 Rhythm Guitar
e|----------------------------------|-------------------------------------|
B|----------------------------------|-------------------------------------|
G|----------------------------------|-------------------------------------|
D|-----------9-----10----12--9-(2x)-|-----------7-------9-------10-7------|
A|-----------7-----7-----7---7------|--5-5-5-5--5--5-5--5--5-5--5--5------|
E|---0-0-0-0---0-0---0-0------------|-------------------------------------|
P.M. . . . .   . .   . .               . . . .     . .     . .

e|-------------------------------------------------------------------|
B|-------------------------------------------------------------------|
G|-------------------------------------------------------------------|
D|-----------9-9-9-7-7-7-7-7-7-5-5-5-4-4-4---------------------------|
A|--10-10-10-7-7-7-5-5-5-5-5-5-3-3-3-2-2-2---------------------------|
E|--8--8--8----------------------------------------------------------|
P.M .  .  .  . . . . . . . . . . . . . . .  

  Lead Guitar
e|------10-8-8h10p8----------------------|
B|----8-------------12-12-10-12-10-(2x)--|
G|--9------------------------------------|
D|---------------------------------------|
A|---------------------------------------|
E|---------------------------------------|

e|-------------------------------------|------------------|
B|----7-10-8-7h8p7---7-7-8-------------|--10b-10-8-7---7--|
G|--7--------------9-------9-----------|-------------9----|
D|-------------------------------------|------------------|
A|-------------------------------------|------------------|
E|-------------------------------------|------------------|

"Pray Your Not The Only One"
e|------------------------------------------------|
B|------------------------------------------------|
G|------------------------------------------------|
D|-----------------2-----2-----2------------------|
A|---2-2-2-2-2-2-2-3-2-2-0-2-2-2-2-2-2-2-2-2-2-2--|
E|---0-0-0-0-0-0-0---0-0---0-0---0-0-0-0-0-0-0-0--|
P.M.   . . . . . .   . .   . .   . . . . . . . .
e|------------------------------------------------|
B|-----------------------AH----------AH-----------|
G|----------------------5b*----------7b*----------|
D|----------------5h7h8----------7-8----8b*-------|
A|----------5h7h8------------7-8------------------|
E|----5h7h8---------------------------------------|


"If Given Mistakes Would I Take Them Back"
e|-------------------------------------------------|
B|--------------------------AH---------------------|
G|--------------------------*5p4---5p4----4*-------|
D|-------------------------------7------7----------|
A|--9-9-7-7-9-9-7-7-9-9-7-7------------------------|
E|--7-7-5-5-7-7-5-5-7-7-5-5------------------------|


e|--------------------------------------------------|
B|---------------------------AH---------------------|
G|--------------------------*5p4---5p4---5-7*-------|
D|-------------------------------7-----7------------|
A|--9-9-7-7-9-9-7-7-9-9-7-7-------------------------|
E|--7-7-5-5-7-7-5-5-7-7-5-5-------------------------|

"What Would They Be The Words That I Would Say"
e|---------------------|
B|---------------------|
G|---------------------|
D|------7-----11-------|
A|----5-----9----------|
E|--3-----7------------|

After "For You, The Newo That I Loved"
e|---------------|
B|---------------|
G|---------------|
D|-------12-(2x)-|
A|----10---------|
E|--8------------|


"Did you ever really know before.."
Rhythm Guitar
e|-------------------------------------------------------------------|
B|-------------------------------------------------------------------|
G|-------------------------------------------------------------------|
D|-------------------------------------------------------------------|
A|-------------------------------------------------------------------|
E|--7-7-0-0-7-7-0-0-7-7-0-0-7-7-0-0-3-3-0-0-3-3-0-0-3-3-0-0-3-3-0-0--|
PM  . . . . . . . . . . . . . . . . . . . . . . . . . . . . . . . .

Lead Guitar
e|--------------------------------|
B|--10-12-10-12-14b-10-7----------|
G|--------------------------------|
D|--------------------------------|
A|--------------------------------|
E|--------------------------------|

 "Dear Ambelina"
e|---------------------------------------------------------|
B|---------------------------------------------------------|
G|----------7----------------------------------------------|
D|--4-------7-(16x)-7---------------4-4-2-2----------------|
A|--4-(16x)-5-------7-(16x)--2-(8x)-2-2-0-0--0-0-----------|
E|--2---------------5--------0---------------0-0-----------|
PM                           .               . .

e|---------------------------------------------|
B|---------------------------------------------|
G|---------------------------------------------|  
D|-------------------2--------------4-4-2-2----|  
A|---4-(16x)-2-(16x)-0-(16x)-2-(8x)-2-2-0-0----|
E|---2-------0---------------0-----------------|
PM   .       .       .       .
Добавлено: 07.04.2012
Другие материалы по этой песне:

Страница создана 13.03.2012
http://primanota.ru/coheed-and-cambria/the-crowing-chords.htm
Привет, Гость.
Предлагаем пройти революционный курс по гитаре.
Подарок от PrimaNota.Ru, забирай!