PrimaNota.ru - самый крупный в мире бесплатный архив песенных текстов, аккордов, табулатур и нот


Coheed & Cambria - The Broken - текст песни, таба, бас-таба, видео

Регистрация Запомнить меня
Войти через:  Facebook Google Twitter Vk Yandex Mail.ru

Coheed & Cambria - The Broken - текст песни, таба, бас-таба, видео

Печатать
Просмотров: 203
Уроки эстрадного вокала в Санкт-Петербурге
Авторы музыки: Coheed and Cambria
Авторы текста: Claudio Sanchez
s = slide 
* = harmonic (in this case, natural harmonic)

Got as much as I could for now. 


Verse

|----------------------------------------------|
|----------------------------------------------|
|----------------------------------------------|
|--5-5--5-5------5--5p3------------------------|
|--3-3--3-3----s6-6-----5-6--6-5-3--1-3--------|
|----------------------------------------------|


|----------------------------------------------|
|----------------------------------------------|
|----------------------------------------------|
|---------3------------------------------------|
|----5--5---6p5---6-6--6-6---------------------|
|--s6--6----------4-4--4-4---s6-4-3-4----------|


|----------------------------------------------|
|--------------------3-6-4p3-------------------|
|-----------------1s3-------3---7p5p0----------|
|----------------------------------------------|
|--3-3---3-3-----------------------------------|
|--1-1---1-1-----------------------------------|

At the end of the verse, play this:

|-4*----|
|-4*----|
|-4*----|
|-------|
|-------|
|-------|

Chorus

|-----------------------| Play each power chord 16x
|-----------------------|
|--------5--3-----------|
|--------3--1-----------|
|--6--3--------6--8-----|
|--4--1--------4--6-----|


Verse

Chorus

This comes after the chorus, but then it gets tough to tab out
so I'll keep working on it and hopefully I can get it.

|-----------------------------------------|
|-----------------------------------------|
|---------------------3-------------------|
|--6-5-5--6-5-5---------6p5p3-5p3---------|
|--4-3-3--4-3-3---s3-6------------6-------|
|-----------------------------------------|

|-----------------------------------------|
|-----------------------------------------|
|-----------------------------------------|
|--6-5-5---6-5-5---5------5----5----------|
|--4-3-3---4-3-3-----6-3---6-3--6-3-------|
|-----------------------------------------|
Добавлено: 23.02.2012
Другие материалы по этой песне:

Страница создана 23.02.2012
http://primanota.ru/coheed-and-cambria/the-broken-chords.htm
Привет, Гость.
Предлагаем пройти революционный курс по гитаре.
Подарок от PrimaNota.Ru, забирай!