PrimaNota.ru - самый крупный в мире бесплатный архив песенных текстов, аккордов, табулатур и нот


Coheed & Cambria - Ten Speed - таба, видео

Регистрация Запомнить меня
Войти через:  Facebook Google Twitter Vk Yandex Mail.ru

Coheed & Cambria - Ten Speed - таба, видео

Печатать
Просмотров: 92
Coheed & Cambria
"Ten Speed (Of God's Blood & Burial)" (Acoustic)
From Fear Through The Eyes Of Madness
2005

One of my fav bands and songs. I decided to make an
acoustic tab/version using only chords since
I haven't seen/heard an acoustic tab/version yet.
I don't know all the chord names and
I'd appreciate some help.
Make up your own rhythm.

E Flat Tuning (eb Bb Gb Db Ab Eb)

Intro

eb--5~----5~----5~----5~--|
Bb--5~----5~----5~----5~--|
Gb--5~----5~----5~----5~--|
Db--7~----7~----7~----7~--|
Ab--7~----7~----7~----7~--|
Eb--5~----5~----5~----5~--|

Verse

eb--5~----3~----0~----1~--|
Bb--5~----3~----0~----1~--|
Gb--5~----4~----0~----2~--|
Db--7~----5~----2~----3~--|
Ab--7~----5~----2~----3~--|
Eb--5~----3~----0~----1~--|

eb--5~----3~----0~----1~--|
Bb--5~----3~----0~----1~--|
Gb--5~----4~----0~----2~--|
Db--7~----5~----2~----3~--|
Ab--7~----5~----2~----3~--|
Eb--5~----3~----0~----1~--|

Chorus 1

eb--1~-1~-1~-1~-5~-5~-5~-3~--|
Bb--1~-1~-1~-1~-6~-6~-5~-3~--|
Gb--2~-2~-2~-2~-7~-7~-5~-5~--|
Db--3~-3~-3~-3~-7~-7~-7~-5~--|
Ab--3~-3~-3~-3~-5~-5~-7~-3~--|
Eb--1~-1~-1~-1~-------5~-----|

eb--1~-1~-1~-1~-5~-5~-5~5~3~--|
Bb--1~-1~-1~-1~-6~-6~-5~5~3~--|
Gb--2~-2~-2~-2~-7~-7~-5~5~5~--|
Db--3~-3~-3~-3~-7~-7~-7~7~5~--|
Ab--3~-3~-3~-3~-5~-5~-7~7~3~--|
Eb--1~-1~-1~-1~-------5~5~----|

eb--1~-1~-1~-1~-5~-5~-5~-3~--|
Bb--1~-1~-1~-1~-6~-6~-5~-3~--|
Gb--2~-2~-2~-2~-7~-7~-5~-5~--|
Db--3~-3~-3~-3~-7~-7~-7~-5~--|
Ab--3~-3~-3~-3~-5~-5~-7~-3~--|
Eb--1~-1~-1~-1~-------5~-----|

eb--1~-1~-1~-1~-5~-5~-5~5~3~-5~--|
Bb--1~-1~-1~-1~-6~-6~-5~5~3~-5~--|
Gb--2~-2~-2~-2~-7~-7~-5~5~5~-5~--|
Db--3~-3~-3~-3~-7~-7~-7~7~5~-7~--|
Ab--3~-3~-3~-3~-5~-5~-7~7~3~-7~--|
Eb--1~-1~-1~-1~-------5~5~---5~--|

Verse 2

eb--5~----3~----0~----1~--|
Bb--5~----3~----0~----1~--|
Gb--5~----4~----0~----2~--|
Db--7~----5~----2~----3~--|
Ab--7~----5~----2~----3~--|
Eb--5~----3~----0~----1~--|

eb--5~----3~----0~----1~--|
Bb--5~----3~----0~----1~--|
Gb--5~----4~----0~----2~--|
Db--7~----5~----2~----3~--|
Ab--7~----5~----2~----3~--|
Eb--5~----3~----0~----1~--|

Chorus 2

eb--1~-1~-1~-1~-5~-5~-5~-3~--|
Bb--1~-1~-1~-1~-6~-6~-5~-3~--|
Gb--2~-2~-2~-2~-7~-7~-5~-5~--|
Db--3~-3~-3~-3~-7~-7~-7~-5~--|
Ab--3~-3~-3~-3~-5~-5~-7~-3~--|
Eb--1~-1~-1~-1~-------5~-----|

eb--1~-1~-1~-1~-5~-5~-5~5~3~--|
Bb--1~-1~-1~-1~-6~-6~-5~5~3~--|
Gb--2~-2~-2~-2~-7~-7~-5~5~5~--|
Db--3~-3~-3~-3~-7~-7~-7~7~5~--|
Ab--3~-3~-3~-3~-5~-5~-7~7~3~--|
Eb--1~-1~-1~-1~-------5~5~----|

eb--1~-1~-1~-1~-5~-5~-5~-3~--|
Bb--1~-1~-1~-1~-6~-6~-5~-3~--|
Gb--2~-2~-2~-2~-7~-7~-5~-5~--|
Db--3~-3~-3~-3~-7~-7~-7~-5~--|
Ab--3~-3~-3~-3~-5~-5~-7~-3~--|
Eb--1~-1~-1~-1~-------5~-----|

eb--1~-1~-1~-1~-5~-5~-5~5~3~--|
Bb--1~-1~-1~-1~-6~-6~-5~5~3~--|
Gb--2~-2~-2~-2~-7~-7~-5~5~5~--|
Db--3~-3~-3~-3~-7~-7~-7~7~5~--|
Ab--3~-3~-3~-3~-5~-5~-7~7~3~--|
Eb--1~-1~-1~-1~-------5~5~----|

Advanced Chorus

eb--3~-3~-3~-3~-7~-7~-7~-5~--|
Bb--3~-3~-3~-3~-8~-8~-7~-5~--|
Gb--4~-4~-4~-4~-9~-9~-7~-7~--|
Db--5~-5~-5~-5~-9~-9~-9~-7~--|
Ab--5~-5~-5~-5~-7~-7~-9~-5~--|
Eb--3~-3~-3~-3~-------7~-----|

eb--3~-3~-3~-3~-7~-7~-7~7-5~--|
Bb--3~-3~-3~-3~-8~-8~-7~7-5~--|
Gb--4~-4~-4~-4~-9~-9~-7~7-7~--|
Db--5~-5~-5~-5~-9~-9~-9~9-7~--|
Ab--5~-5~-5~-5~-7~-7~-9~9-5~--|
Eb--3~-3~-3~-3~-------7~7-----|

eb--3~-3~-3~-3~-7~-7~-7~-5~--|
Bb--3~-3~-3~-3~-8~-8~-7~-5~--|
Gb--4~-4~-4~-4~-9~-9~-7~-7~--|
Db--5~-5~-5~-5~-9~-9~-9~-7~--|
Ab--5~-5~-5~-5~-7~-7~-9~-5~--|
Eb--3~-3~-3~-3~-------7~-----|

eb--3~-3~-3~-3~-7~-7~-7~7~-5~--|
Bb--3~-3~-3~-3~-8~-8~-7~7~-5~--|
Gb--4~-4~-4~-4~-9~-9~-7~7~-7~--|
Db--5~-5~-5~-5~-9~-9~-9~9~-7~--|
Ab--5~-5~-5~-5~-7~-7~-9~9~-5~--|
Eb--3~-3~-3~-3~-------7~7~-----|

Calm Riff (Played 2 times)

eb--1~-1~-1~-1~-3~-3~-3~-3~--|
Bb--1~-1~-1~-1~-3~-3~-3~-3~--|
Gb--2~-2~-2~-2~-4~-4~-4~-4~--|
Db--3~-3~-3~-3~-5~-5~-5~-5~--|
Ab--3~-3~-3~-3~-5~-5~-5~-5~--|
Eb--1~-1~-1~-1~-3~-3~-3~-3~--|

eb--0~-0~-0~-0~-1~-1~-1~-1~--|
Bb--0~-0~-0~-0~-1~-1~-1~-1~--|
Gb--0~-0~-0~-0~-2~-2~-2~-2~--|
Db--2~-2~-2~-2~-3~-3~-3~-3~--|
Ab--2~-2~-2~-2~-3~-3~-3~-3~--|
Eb--0~-0~-0~-0~-1~-1~-1~-1~--|

Breakdown

eb--5~-5~-5~-5~-3~-3~-3~-3~--|
Bb--5~-5~-5~-5~-3~-3~-3~-3~--|
Gb--5~-5~-5~-5~-4~-4~-4~-4~--|
Db--7~-7~-7~-7~-5~-5~-5~-5~--|
Ab--7~-7~-7~-7~-5~-5~-5~-5~--|
Eb--5~-5~-5~-5~-3~-3~-3~-3~--|

eb--0~-0~-0~-0~-1~-1~-1~-1~--|
Bb--0~-0~-0~-0~-1~-1~-1~-1~--|
Gb--0~-0~-0~-0~-2~-2~-2~-2~--|
Db--2~-2~-2~-2~-3~-3~-3~-3~--|
Ab--2~-2~-2~-2~-3~-3~-3~-3~--|
Eb--0~-0~-0~-0~-1~-1~-1~-1~--|

Chorus 3

eb--1~-1~-1~-1~-5~-5~-5~-3~--|
Bb--1~-1~-1~-1~-6~-6~-5~-3~--|
Gb--2~-2~-2~-2~-7~-7~-5~-5~--|
Db--3~-3~-3~-3~-7~-7~-7~-5~--|
Ab--3~-3~-3~-3~-5~-5~-7~-3~--|
Eb--1~-1~-1~-1~-------5~-----|

eb--1~-1~-1~-1~-5~-5~-5~5~3~--|
Bb--1~-1~-1~-1~-6~-6~-5~5~3~--|
Gb--2~-2~-2~-2~-7~-7~-5~5~5~--|
Db--3~-3~-3~-3~-7~-7~-7~7~5~--|
Ab--3~-3~-3~-3~-5~-5~-7~7~3~--|
Eb--1~-1~-1~-1~-------5~5~----|

eb--1~-1~-1~-1~-5~-5~-5~-3~--|
Bb--1~-1~-1~-1~-6~-6~-5~-3~--|
Gb--2~-2~-2~-2~-7~-7~-5~-5~--|
Db--3~-3~-3~-3~-7~-7~-7~-5~--|
Ab--3~-3~-3~-3~-5~-5~-7~-3~--|
Eb--1~-1~-1~-1~-------5~-----|

eb--1~-1~-1~-1~-5~-5~-5~5~3~--|
Bb--1~-1~-1~-1~-6~-6~-5~5~3~--|
Gb--2~-2~-2~-2~-7~-7~-5~5~5~--|
Db--3~-3~-3~-3~-7~-7~-7~7~5~--|
Ab--3~-3~-3~-3~-5~-5~-7~7~3~--|
Eb--1~-1~-1~-1~-------5~5~----|

eb--1~-1~-1~-1~-5~-5~-5~-3~--|
Bb--1~-1~-1~-1~-6~-6~-5~-3~--|
Gb--2~-2~-2~-2~-7~-7~-5~-5~--|
Db--3~-3~-3~-3~-7~-7~-7~-5~--|
Ab--3~-3~-3~-3~-5~-5~-7~-3~--|
Eb--1~-1~-1~-1~-------5~-----|

eb--1~-1~-1~-1~-5~-5~-5~5~3~--|
Bb--1~-1~-1~-1~-6~-6~-5~5~3~--|
Gb--2~-2~-2~-2~-7~-7~-5~5~5~--|
Db--3~-3~-3~-3~-7~-7~-7~7~5~--|
Ab--3~-3~-3~-3~-5~-5~-7~7~3~--|
Eb--1~-1~-1~-1~-------5~5~----|

eb--1~-1~-1~-1~-5~-5~-5~-3~--|
Bb--1~-1~-1~-1~-6~-6~-5~-3~--|
Gb--2~-2~-2~-2~-7~-7~-5~-5~--|
Db--3~-3~-3~-3~-7~-7~-7~-5~--|
Ab--3~-3~-3~-3~-5~-5~-7~-3~--|
Eb--1~-1~-1~-1~-------5~-----|

eb--1~-1~-1~-1~-5~-5~-5~5~5~--|
Bb--1~-1~-1~-1~-6~-6~-5~5~5~--|
Gb--2~-2~-2~-2~-7~-7~-5~5~5~--|
Db--3~-3~-3~-3~-7~-7~-7~7~7~--|
Ab--3~-3~-3~-3~-5~-5~-7~7~7~--|
Eb--1~-1~-1~-1~-------5~5~5~--|

Basically it's...

Intro
Verse
Chorus 1
Verse
Chorus 2
Advanced Chorus
Calm Riff
Breakdown
Chorus 3

That's all I got.

Enjoy.

Tabbed by X8<-(Triggar8)->8X

9/10/12
Добавлено: 29.07.2013
Другие материалы по этой песне:

Страница создана 08.05.2012
http://primanota.ru/coheed-and-cambria/ten-speed-chords.htm
Привет, Гость.
Предлагаем пройти революционный курс по гитаре.
Подарок от PrimaNota.Ru, забирай!