PrimaNota.ru - самый крупный в мире бесплатный архив песенных текстов, аккордов, табулатур и нот


Coheed & Cambria - Road And The Damned - таба, видео

Регистрация Запомнить меня
Войти через:  Facebook Google Twitter Vk Yandex Mail.ru

Coheed & Cambria - Road And The Damned - таба, видео

Печатать
Просмотров: 129
doppleganger78
e-mail-goodappolo4@yahoo.com

e|-----------------------------------|
B|-----------------------------------|
G|------2-----2----------------------|
D|----0-----0----------0-------------|
A|--2-----0----------5---5---7/10-9--|
E|---------------5h7-------7---------|

e|----------------3--|
B|----------------3--|
G|------2-----2---0--|
D|----0-----0-----0--|
A|--2-----0-------2--|
E|----------------3--|

e|-------------|
B|-------------|
G|-------------|x4
D|-------------|
A|-2-2-2-2-2-2-|
E|-0-0-0-0-0-0-|

e|--------------|
B|--------------|
G|--------------|
D|-5-5-5-5-5-5--|
A|-3-3-3-3-3-3--|
E|--------------|

e|----------|
B|-3-3-3-2--|
G|-2-0-0-2--|
D|-0-2-0-2--|
A|-0-2-2-0--|
E|---0-3----|
Добавлено: 27.07.2012
Другие материалы по этой песне:
  • Аккорды и текст

Страница создана 20.05.2012
http://primanota.ru/coheed-and-cambria/road-and-the-damned-chords.htm
Привет, Гость.
Предлагаем пройти революционный курс по гитаре.
Подарок от PrimaNota.Ru, забирай!