PrimaNota.ru - самый крупный в мире бесплатный архив песенных текстов, аккордов, табулатур и нот


Coheed & Cambria - Purple Haze - таба, видео

Регистрация Запомнить меня
Войти через:  Facebook Google Twitter Vk Yandex Mail.ru

Coheed & Cambria - Purple Haze - таба, видео

Печатать
Просмотров: 108
Coheed and Cambra: Purple Haze Acoustic
By: Schtick_Bomb

This is the live acoustic version claudio does during neverender, I think in
london. I've seen a lot of people ask for this tabbed out so I thought i'd give it a shot.

Tuning is E flat, claudios regular tuning these days.

(~) means let note ring, not vibrato, incase anyone gets confused.

--------------------------------------------------|
------8-----------8----8~~------------------------|
----7---0-------0----0----------------------------|
-/9-------0h7-7----7------5---------5-------------|
----------------------------5---5/7---------------|
------------------------------0~------0~----------|

X2

--------------------------------------------------|
--------------------------------------------------|
--------------------------------------------------|
-5-----5-----5---5/7h9\5-----5-----5---------5----|
---7-----7-----7---------5-----5-----5---5/7------|
-----0-----0---------------0-----0-----0-------0~-|

--------------------------------------------------|
--------------------------------------------------|
-------------------------------------------7h9-0~-|
-5-----5-----7p5---------5-----5-----5/7h9--------|
---5-----5-------5---5h7---5-----5----------------|
-----0-----0-------0~--------0-----0--------------|

Pre-Verse:

--------------------------------------------------|
--------------------------------------------------|
-------0-----0-----0---------------------0--------|
-----2-----2-----2-------0-----0-------0---0------|
---2-----2-----2-------2-----2-------4-------4----|
-0~------------------3-----3-----3/5-----------5--|

X2

Verse:
purple haze all in my brain...
-----------------------------------------------------|
-----------------------------------------------------|
---------------------------------------------0-------|
-----2-----2-----2-----2-----0-----0-------0---0-----|
---2-----2-----2-----2-----2-----2-------4-------4---|
-0-----0-----0-----0-----3-----3-----3/5-----------5-|

X3

Pause:
excuse me, while I kiss the sky

Pre-Verse:

--------------------------------------------------|
--------------------------------------------------|
-------0-----0-----0---------------------0--------|
-----2-----2-----2-------0-----0-------0---0------|
---2-----2-----2-------2-----2-------4-------4----|
-0~------------------3-----3-----3/5-----------5--|

x2
(2nd time)
Pre-Verse:

-------------------0------------------------------|
-------------0------------------------------------|
-------0---------------------------------0--------|
-----2-----2-----2-------0-----0-------0---0------|
---2-----2-----2-------2-----2-------4-------4----|
-0~------------------3-----3-----3/5-----------5--|

Verse:
purple haze all around...
-----------------------------------------------------|
-----------------------------------------------------|
---------------------------------------------0-------|
-----2-----2-----2-----2-----0-----0-------0---0-----|
---2-----2-----2-----2-----2-----2-------4-------4---|
-0-----0-----0-----0-----3-----3-----3/5-----------6-|

X3

Pause:
whatever it is, that girl put a spell on me

Chorus:
(youll have to work out the timing but these are the chords)
 Heeeelp   Ive lost my  Miiiiind
-0---------3-----------/5----------------|
-0---------3-----------/5----------------|
-0---------0-----------/0----------------|
-2---------0-----------/0----------------|
-2---------2-----------/4----------------|
-0---------3-----------/5----------------|

X4

Verse:
purple haze, in my eyes...
-----------------------------------------------------|
-----------------------------------------------------|
---------------------------------------------0-------|
-----2-----2-----2-----2-----0-----0-------0---0-----|
---2-----2-----2-----2-----2-----2-------4-------4---|
-0-----0-----0-----0-----3-----3-----3/5-----------6-|

X3

is this tomorrow or just the end of time
-0-------|
-0-------|
-0-------|
-2-------|
-2-------|
-0-------|
Добавлено: 25.04.2012
Другие материалы по этой песне:
  • Аккорды и текст

Страница создана 25.04.2012
http://primanota.ru/coheed-and-cambria/purple-haze-chords.htm
Привет, Гость.
Предлагаем пройти революционный курс по гитаре.
Подарок от PrimaNota.Ru, забирай!