PrimaNota.ru - самый крупный в мире бесплатный архив песенных текстов, аккордов, табулатур и нот


Coheed & Cambria - Pretelethal - таба, видео

Регистрация Запомнить меня
Войти через:  Facebook Google Twitter Vk Yandex Mail.ru

Coheed & Cambria - Pretelethal - таба, видео

Печатать
Просмотров: 111
Уроки эстрадного вокала в Санкт-Петербурге
Pretelethal (3:21)    [Coheed & Cambria - The Afterman: Descension]


Intro/Verse (clean/acoustic)

e|---------9--------9--------9--------9-7--------7--------7--------7--------|
B|--12---9---12---9---12---9---12---9-------9-10-----9-10-----9-10-----8-10-|
G|-----9--------9--------9--------9-------7--------7--------7--------7------|
D|--------------------------------------------------------------------------|
A|--------------------------------------------------------------------------|
E|--------------------------------------------------------------------------|

e|--5-----5-5-----5-5-----5-5-----5-------5-------5-------5-------5---------|
B|------5-------5-------5-------5---8---5---8---5---8---5---8---5-----------|
G|----6-------6-------6-------6-------5-------5-------5-------5------Repeat-|
D|--------------------------------------------------------------------------|
A|--------------------------------------------------------------------------|
E|--------------------------------------------------------------------------|


Rhythm Chorus (heavy)
e|---------------------------------------|
B|---------------------------------------|
G|-------------2-------2-4-------2-------|
D|--2----------2-------2-4---2---2-5-4---| x1
A|--2--------2-0-------0-2---2---0-5-4---|
E|--0------3---------3-------0-----3-2---|

Lead Chorus (heavy, blues lead)
e|------------------------------------------------------------------|
B|------------------------------------------------------------------|
G|---Pickup After-------------4--5-5-------------------4------------|
D|-----Rhythm---------------2----5-5---Repeat x3-----2-----4b5------|
A|------------------------3----3-3-3---------------3-----3-----5----|
E|------------------------------------------------------------------|


Outro

e|7-7-7-7-7-7-7-7-7-7-7-7-7-7-7-7-3-3-3-3-3-3-3-3-3-3-3-3-3-3-3-3-0-0-0-0-0-|
B|5-5-5-5-5-5-5-5-5-5-5-5-5-5-5-5-5-5-5-5-5-5-5-5-5-5-5-5-5-5-5-5-5-5-5-5-5-|
G|--------------------------------------------------------------------Fade--|
D|--------------------------------------------------------------------------|
A|--------------------------------------------------------------------------|
E|--------------------------------------------------------------------------|



Intro/Verse x4
Rhythm x2
Verse x2
Rhythm x2
Outro


Lyrics:

We drift away with the dust
The light consumes the dark recluse

No time to waste in this mess
I will retreat, no sins confessed

How did we get so lost? Away ...

Who will repair this broken heart? x2

This world will miss none of us
The sick we cure, the bad we just ....

Who will repair this broken heart? x2


//


Simple, easy, interesting, but I really enjoyed the intro to this new album. Couldn't find the tab
anywhere, so I decided to do it myself. Enjoy, CotF. -JC  
(idc if reposted, just give me credit @ soon2bd2god@gmail.com. Thanks and Rock on)
Добавлено: 20.11.2013
Другие материалы по этой песне:

Страница создана 05.10.2013
http://primanota.ru/coheed-and-cambria/pretelethal-chords.htm
Привет, Гость.
Предлагаем пройти революционный курс по гитаре.
Подарок от PrimaNota.Ru, забирай!