PrimaNota.ru - самый крупный в мире бесплатный архив песенных текстов, аккордов, табулатур и нот


Coheed & Cambria - Mothers Of Men - таба, видео

Регистрация Запомнить меня
Войти через:  Facebook Google Twitter Vk Yandex Mail.ru

Coheed & Cambria - Mothers Of Men - таба, видео

Печатать
Просмотров: 111
Авторы: Claudio Sanchez

-----------------------------------
Mothers Of Men - Coheed And Cambria
-----------------------------------
Tabbed by: lukoswan
E-mail: lukoswan@live.com

*Only rhythm parts

Intro:
e|-----------------------------------------------------------|
B|-----------------------------------------------------------|
G|-----------------------------------------------------------|
D|------3~--0---2~----------5--------3~--0---2~------+3p2p0--|
A|--3---------0----3-0-3~--3-----3---------0----0-3-5--------|
E|5---5-------------------1----5---5------------------------3|
  * * *     * *    * *         * * *     * *
e|---------------------------------------------------------------------------------|
B|---------------------------------------------------------------------------------|
G|---------------------------------------------------------------------------------|
D|------3~--0---2~----------5----3-3/5-3p0-7~----------------3-3/5-3p0-7~----------|
A|--3---------0----3-0-3~--3----3-------------5\2-/8-7--0---3-------------5\2-/8-7b|
E|5---5-------------------1----1---------------------------1-----------------------|
  *

Verse 1:
e|-----------------------------------------------------------|
B|-----------------------------------------------------------|
G|-----------------------------------------------------------|
D|------3~--0---2~----------5--------3~--0---2~------+3p2p0--|
A|--3---------0----3-0-3~--3-----3---------0----0-3-5--------|
E|5---5-------------------1----5---5------------------------3|
  * * *     * *    * *         * * *     * *                                             
 [x2]
e|--------------------------------------------------------------------------------|
B|--------------------------------------------------------------------------------|
G|--------------------------------------------------------------------------------|
D|------3~--0---2~----------5----3-3/5-3p0-7~----------------3-3/5-3p0-7~---------|
A|--3---------0----3-0-3~--3----3-------------5\2-/8-7--0---3-------------5\2-/8-7|
E|5---5-------------------1----1---------------------------1----------------------|
  * * *     * *    * *
Chorus:
e|------------------------------------------------------------|
B|------------------------------------------------------------|
G|------------------------------------------------------------|
D|------------------------------------------------------------|              (x2)
A|7-7-7-7-xx-7-7-7-xx-7-7-7-7-7-10101010-xx-10103-3-3-xx-3-3-3|
E|5-5-5-5-xx-5-5-5-xx-5-5-5-5-5-8-8-8-8--xx-8-8-1-1-1-xx-1-1-1|

e|------------------------------------------------------------|
B|------------------------------------------------------------|
G|------------------------------------------------------------|
D|7-------10------5------3------------------------------------|
A|7-(x16)-10-(x8)-5-(x8)-3-(x16)--3-------3---3/5\3-------3-2~|
E|5-------8-------3------1----------1-0-1---1-------1-0-1-----|

Verse 2:
e|--------------------------------------------|
B|--------------------------------------------|
G|--------------------------------------------|
D|------3~--0---2~----------5--------3~--0---2|   Play only once at the beginning of 
this Verse
A|--3---------0----3-0-3~--3-----3---------0--|
E|5---5-------------------1----5---5----------|
  * * *     * *    * *         * * *     * *

e|-----------------------------------------------------------|
B|-----------------------------------------------------------|
G|-----------------------------------------------------------|
D|------3~--0---2~----------5--------3~--0---2~------+3p2p0--|
A|--3---------0----3-0-3~--3-----3---------0----0-3-5--------|
E|5---5-------------------1----5---5------------------------3|
  * * *     * *    * *         * * *     * *                                             
 [x2]
e|--------------------------------------------------------------------------------|
B|--------------------------------------------------------------------------------|
G|--------------------------------------------------------------------------------|
D|------3~--0---2~----------5----3-3/5-3p0-7~----------------3-3/5-3p0-7~---------|
A|--3---------0----3-0-3~--3----3-------------5\2-/8-7--0---3-------------5\2-/8-7|
E|5---5-------------------1----1---------------------------1----------------------|
  * * *     * *    * *

Chorus:
e|------------------------------------------------------------|
B|------------------------------------------------------------|
G|------------------------------------------------------------|
D|------------------------------------------------------------|              (x2)
A|7-7-7-7-xx-7-7-7-xx-7-7-7-7-7-10101010-xx-10103-3-3-xx-3-3-3|
E|5-5-5-5-xx-5-5-5-xx-5-5-5-5-5-8-8-8-8--xx-8-8-1-1-1-xx-1-1-1|

e|------------------------------------------------------------|
B|------------------------------------------------------------|
G|------------------------------------------------------------|
D|7-------10------5------3------------------------------------|
A|7-(x16)-10-(x8)-5-(x8)-3-(x16)--3-------3---3/5\3-------3-2~|
E|5-------8-------3------1----------1-0-1---1-------1-0-1-----|

Middle Eight:
e|---------------------------------------------------------|
B|---------------------------------------------------------|
G|---------------------------------------------------------|        (x2)
D|--------9---------9-------9----------12---------5-------5|
A|------7---------7-------7---------10----------3-------3--|
E|5-5-5-----5-5-5-----5-5-----8-8-8-------1-1-1-----1-1----|

e|--------------------------------------------------|
B|--------------------------------------------------|
G|--------------------------------------------------|
D|7------10------3-------7-------101010-333-101010-5|
A|7-(16)-10-(x8)-3-(x8)--7-(x16)-101010-333-101010-5|
E|5------8-------1-------5-------8 8 8--111-8 8 8--3|

e|----------------------------------------------------|
B|----------------------------------------------------|
G|----------------------------------------------------|
D|7------10------3-------7-------101010-333-101010-555|
A|7-(16)-10-(x8)-3-(x8)--7-(x16)-101010-333-101010-555|
E|5------8-------1-------5-------8 8 8--111-8 8 8--333|

Bridge:
e|--------------------------------------------------------------------|
B|--------------------------------------------------------------------|
G|--5--------4~-------5-----4-----4~---4----------5-----4-----4~---4--|
D|7----5-5-5----3-3-3---3-3---3-3----3---3--3-3-3---3-3---3-3----3---3|
A|--------------------------------------------------------------------|
E|--------------------------------------------------------------------|

Chorus/Outro:
e|------------------------------------------------------------|
B|------------------------------------------------------------|
G|------------------------------------------------------------|
D|------------------------------------------------------------|       (x2)
A|7-7-7-7-xx-7-7-7-xx-7-7-7-7-7-10101010-xx-10103-3-3-xx-3-3-3|
E|5-5-5-5-xx-5-5-5-xx-5-5-5-5-5-8-8-8-8--xx-8-8-1-1-1-xx-1-1-1|
                                                                                [x2]
e|------------------------------------------------------------|
B|------------------------------------------------------------|
G|------------------------------------------------------------|
D|7-------10------5------3------------------------------------|
A|7-(x16)-10-(x8)-5-(x8)-3-(x16)--3-------3---3/5\3-------3-2~|
E|5-------8-------3------1----------1-0-1---1-------1-0-1-----|



************************************
| /   slide up
| \   slide down
| h   hammer-on
| p   pull-off
| ~   vibrato
| +   harmonic
| x   Mute note
| b   Bend
************************************
Добавлено: 07.11.2013
Другие материалы по этой песне:

Страница создана 30.06.2013
http://primanota.ru/coheed-and-cambria/mothers-of-men-chords.htm
Привет, Гость.
Предлагаем пройти революционный курс по гитаре.
Подарок от PrimaNota.Ru, забирай!