PrimaNota.ru - самый крупный в мире бесплатный архив песенных текстов, аккордов, табулатур и нот


Coheed & Cambria - Made Out Of Nothing All That I Am - текст песни, таба, видео

Регистрация Запомнить меня
Войти через:  Facebook Google Twitter Vk Yandex Mail.ru

Coheed & Cambria - Made Out Of Nothing All That I Am - текст песни, таба, видео

Печатать
Просмотров: 118
Авторы музыки: Coheed and Cambria
Авторы текста: Claudio Sanchez
Artist: Coheed and Cambria
Track: "Made Out of Nothing (All That I Am)" v 2.0
Album: The Year of the Black Rainbow
Tuning: Standard

Tabbed by Lawrence Jones
I believe this to be a fairly accurate representation of what the guitars are
doing on this track.  I hope you enjoy it.

Link to live video: http://www.youtube.com/watch?v=VqyuRVd2uMU

Key:
/ - slide
. - palm mute
p - pull off
h - hammer on
~ - let ring
b - bend to sound like the following note
r - release bend
* - natural harmonic

Intro: (0:00 - 0:14)

Claudio Intro: x 1

e--------------------------------------------------|
B--------------------------------------------------|
G--------------------------------------------------|
D--------------------------------------------------|
A--555555555555553535555555555555355---------------|
E--333333333333331313333333333333133---------------|
   .................................

e--------------------------------------------------|
B--------------------------------------------------|
G--------------------------------------------------|
D--------------------------------------------------|
A--6/55555555555553535555555555555355--------------|
E--4/33333333333331313333333333333133--------------|
     .................................

Travis Intro Lead: x 2

e--------------------------------------------------|
B--6~--------------4~------3~----------------------|
G----7~------------3~------3~----------------------|
D------5~-5~---------------------------------------|
A--------------------------------------------------|
E--------------------------------------------------|


1st Verse: (0:14 - 0:40)

"Never mind all the lines I'm coming,
and there is no better part of me you'll see,
the darkest light, the blind I'll be
I accept that you chose to forget,
the horrid thing you made of me my dear,
it is alright, it is so"

Claudio Verse Chords: x 2
e-------------------------------------------------------------------------------|
B-------------------------------------------------------------------------------|
G-------------------------------------------------------------------------------|
D------------------------------------88888888888888888888888888888888-----------|
A--6/5555555555555353555555555555555-66666666666666666666666666666666-----------|
E--4/3333333333331313333333333333333--------------------------------------------|
     .................................................................

Travis Verse Chords + Lead: x 2
e-------------------------------------------------------------------------------|
B-------------------------------------------------------------------------------|
G-------------------------------------------------------------------------------|
D-------------------------------------------------------------------------------|
A-------------------------------------1--------------------1--------------------|
E--33333131333331313333313133333131-----3--1--3--3-1-3--------3--1--3-----------|
   ................................


Pre-Chorus: (0:40 - 0:53)

"The laughing feels so good,
but the world misunderstood all I said,
there was no joke in what I meant"

Claudio Pre-Chorus Chords: x 1
(Play each power chord below 8 times)
e-----------------------------------------------------------------|
B-----------------------------------------------------------------|
G-----------------------------------------------------------------|
D---------------------------------3---------------8---------------|
A-5---------------3---------------1---------------6---------------|
E-3---------------1-----------------------------------------------|

e-----------------------------------------------------------------|
B-----------------------------------------------------------------|
G-----------------------------------------------------------------|
D---------------------------------8---------------8---------------|
A-10--------------10--------------6---------------6---------------|
E-8---------------8-----------------------------------------------|


Travis Pre-Chorus Lead: x 1

e------------------------------------------------------------------------|
B------------------------------------------------------------------------|
G------------------------------------------------------------------------|
D-8-7------10-8-7----8-7------10-8-7----8-7------10-8-7----8-7------7----|
A-----10-8--------10-----10-8--------10-----10-8--------10-----10-8---8--|
E------------------------------------------------------------------------|

e-----------------------------------------------------------------|
B-------6~------------------------------3~------------------------|
G---3~------------------------------3~----------------------------|
D-5~--5~--------------------------5~--5~--------------------------|
A-----------------------------------------------------------------|
E-----------------------------------------------------------------|

1st Chorus: (0:53 - 1:19)

"Someone please come shelter me from, all that I am,
never again will I believe the same old story
Someone please come shelter me from, all that I am,
never again will I believe the same old story"

Claudio Chorus Chords: x 2
(Play each power chord below 8 times)
e------------------------------------------------------------------------------|
B------------------------------------------------------------------------------|
G------------------------------------------------------------------------------|
D-----------------------------------------------------------------8-------8----|
A-8-----------8-----------8-----------8-----------5-------3-------6-------6----|
E-6-----------6-----------5-----------5-----------3-------1--------------------|

Travis Chorus Lead: x 2
e--------------------------------------------------------------------|
B-11--11--11--11--11--11--11--11--10--10--10--10--10--10--10--10-----|
G---10--10--10--10--10--10--10--10--10--10--10--10--10--10--10--10---|
D--------------------------------------------------------------------|
A--------------------------------------------------------------------|
E--------------------------------------------------------------------|

e---------------------------------------------------|
B-8--8--8--8--6--6--6--6--4--4--4--4--4--4--4--4----|
G---7--7--7--7--5--5--5--5--3--3--3--3--3--3--3--3--|
D---------------------------------------------------|
A---------------------------------------------------|
E---------------------------------------------------|


Interlude: (1:19 - 1:26)

Claudio Intro x 1

Travis Interlude Lead: x 1
e---------------------------------------------------|
B---------------------------------------------------|
G--3-2-----------3-2----3-2-------------------------|
D------3-5-----------3------3-5---------------------|
A---------------------------------------------------|
E---------------------------------------------------|

2nd Verse: (1:26 - 1:52)

"I've given up on all I love, for an honest moment of clarity,
I need to to feel alright please let me breathe
in a life I made out of nothing, to cleanse this useless identity,
will you hear all the word and its whys, just wait"

Claudio Verse Chords x 2
Travis Verse Chords + Lead x 2

Synth Lead: x 4
e-------------------------------------------------------------------------------|
B-------------------------------------------------------------------------------|
G--3p2-----------2-3p2----2-3p2-5p2-----------3p2----------2-3p2---2-3p2-5p2----|
D------5-5-------------5--------------------------5-5------------5--------------|
A-------------------------------------------------------------------------------|
E-------------------------------------------------------------------------------|

2nd Pre-Chorus: (1:52 - 2:05)

"Will the latter half be as good,
if only I misunderstood,
I weigh all this judgement I've been blamed"

Claudio Pre-Chorus Chords x 1
Travis Pre-Chorus Lead x 1

2nd Chorus: (2:05 - 2:32)


Claudio Chorus Chords x 2
Travis Chorus Lead x 2

Bridge: (2:32 - 3:00)

"I failed, you, I failed
There's no understanding in miracles,
when the worst it always comes true, ha ha
I am the nothing you have saved"

Claudio Bridge Chords: x 1
(Play each power chord 8 times)
e------------------------------------------------------------------------------|
B------------------------------------------------------------------------------|
G------------------------------------------------------------------------------|
D------------------8-------8-------5---------------8-------8-------------------|
A--5-------3-------6-------6-------3-------5-------6-------6-------------------|
E--3-------1-------------------------------3-----------------------------------|

e------------------------------------------------------------------------------|
B------------------------------------------------------------------------------|
G------------------------------------------------------------------------------|
D------------------3-------8-------8-----------------------8-------8-----------|
A--5-------3-------1-------6-------6-------10------10------6-------6-----------|
E--3-------1-------------------------------8-------8---------------------------|

Travis Bridge Octave Lead Pt. 1: x 6
e------------------------------------------------------------|
B------------------------------------------------------------|
G--1010108-8-8-7-7-8-8-8-6-6-6-3-3---------------------------|
D--x-x-x-x-x-x-x-x-x-x-x-x-x-x-x-x---------------------------|
A--8-8-8-6-6-6-5-5-6-6-6-5-5-5-1-1---------------------------|
E------------------------------------------------------------|

Travis Bridge Octave Lead Pt. 2: x 1
e------------------------------------------------|
B------------------------------------------------|
G--1010108-8-7---1010108-8-8-7-7-8-8-8-7-7-7-3-3-|
D--x-x-x-x-x-x---x-x-x-x-x-x-x-x-x-x-x-x-x-x-x-x-|
A--8-8-8-6-6-5---8-8-8-6-6-6-5-5-6-6-6-5-5-5-1-1-|
E------------------------------------------------|

e---------------------------------------------------|
B---------------------------------------------------|
G--8-8-8-8-10101010-12-12-12-12-15-15-15-15---------|
D--x-x-x-x-x-x-x-x--x--x--x--x--x--x--x--x----------|
A--6-6-6-6-8-8-8-8--10-10-10-10-13-13-13-13---------|
E---------------------------------------------------|

Third Chorus: (3:00 - 3:26)


Claudio Chorus Chords x 2
Travis Chorus Lead x 2

Outro: (3:26 - 4:19)

"It eats us like cancer, we're hoping for something,
maybe an answer with all you've done for me, made out of nothing
It eats us like cancer, we're hoping for something,
maybe an answer with all you've done for me, made out of nothing
Made out of nothing, made out of nothing, made out of nothing,
made out of nothing, made out of nothing, made out of nothing"

Claudio Chorus Chords x 4
Travis Chorus Lead x 4

End:

Claudio:
e-----------------------|
B-----------------------|
G-----------------------|
D-----------------------|
A--8~-------------------|
E--6~-------------------|

Travis:
e-----------------------|
B--11~------------------|
G--10~------------------|
D-----------------------|
A-----------------------|
E-----------------------|
Добавлено: 17.04.2012
Другие материалы по этой песне:

Страница создана 17.04.2012
http://primanota.ru/coheed-and-cambria/made-out-of-nothing-all-that-i-am-chords.htm
Привет, Гость.
Предлагаем пройти революционный курс по гитаре.
Подарок от PrimaNota.Ru, забирай!