PrimaNota.ru - самый крупный в мире бесплатный архив песенных текстов, аккордов, табулатур и нот


Coheed & Cambria - Key Entity Extraction Iii Vic The Butcher - таба, видео

Регистрация Запомнить меня
Войти через:  Facebook Google Twitter Vk Yandex Mail.ru

Coheed & Cambria - Key Entity Extraction Iii Vic The Butcher - таба, видео

Печатать
Просмотров: 92
Авторы: Claudio Sanchez

-----------------------------------------------------------------------------
Key Entity Extraction III: Vic The Butcher by Coheed And Cambria
-----------------------------------------------------------------------------

Tabbed by: lukoswan
E-mail: lukoswan@live.com

*Only rhythm guitar, Claudio's parts.

Intro:
e|--------------------------------------------------------------------------|
B|--------------------------------------------------------------------------|
G|-------5---------5---------5-----------5---------5---------5--------------|
D|---7-8---7---7-8---7---7-8---7-----7-8---7---7-8---7---7-8---7------------|
A|-5---------5---------5---------5-5---------5---------5---------5----------|
E|--------------------------------------------------------------------------|

e|--------------------------------------------------------------------------|
B|--------------------------------------------------------------------------|
G|-------5---------5---------5-----------5---------5---------5--------------|
D|---7-8---7---7-8---7---7-8---7-----7-8---7---7-8---7---7-8---7------------|
A|-5---------5---------5---------5-5---------5---------5---------5----------|
E|--------------------------------------------------------------------------|

e|--------------------------------------------------------------------------|
B|--------------------------------------------------------------------------|
G|-------5---------5---------5-----------5---------5---------5--------------|
D|--7-8---7---7-8---7---7-8---7-----7-8---7---7-8---7---7-8---7-------------|
A|5---------5---------5---------5-5---------5---------5---------5-----------|
E|--------------------------------------------------------------------------|

Verse 1:
e|--------------------------------------------------------------------------|
B|--------------------------------------------------------------------------|
G|--------------------------------------------------------------------------|
D|7-7-77--8-8-88----------7-7--7-5-0--7-7-77--8-8-88----------7-7--7-5-0----|
A|5-5-55--5-5-55--5-5-55--5-5--5-3-0--5-5-55--5-5-55--5-5-55--5-5--5-3-0----|
E|----------------7-7-77------------------------------7-7-77----------------|

e|--------------------------------------------------------------------------|
B|--------------------------------------------------------------------------|
G|--------------------------------------------------------------------------|
D|777-7-77-888-8-88----------777-7-5-0--777-7-77-888-8-88----------777-7-5-0|
A|555-5-55-555-5-55-555-5-55-555-5-3-0--555-5-55-555-5-55-555-5-55-555-5-3-0|
E|------------------777-7-77------------------------------777-7-77----------|

Chorus: (a,b,a,b,c,d)
        a
e|--------------------------------------------------------------------------|
B|--------------------------------------------------------------------------|
G|--------------------------------------------------------------------------|
D|--------------------------------------------------------------------------|
A|--------7-----------7-----------7---7-10--10-8-7---7-8--------------------|
E|/8-8888---7-8-88888---7-8-88888---7--------------7------------------------|

        b
e|--------------------------------------------------------------------------|
B|--------------------------------------------------------------------------|
G|---------------------------------------------------------------------7+---|
D|00-00-/7-10-7-----000-/7-10-7-----000-/7-10-7-10-7-10-7-10-7-10-7-10------|
A|00-00---------8~--000---------8~--000-------------------------------------|
E|00-00-------------000-------------000-------------------------------------|

        c
e|--------------------------------------------------------------------------|
B|--------------------------------------------------------------------------|
G|-----------------------------------33333333333333333333333333333333-------|
D|----00----00---0----00----00-5-7\--33333333333333333333333333333333-------|
A|-33-00-33-00-3-0-33-00-33-00-3-5\--11111111111111111111111111111111-------|
E|----00----00---0----00----00----------------------------------------------|

        d
e|--------------------------------------------------------------------------|
B|--------------------------------------------------------------------------|
G|-----------------------------------33333333333333333333333333333333-------|
D|----00----00---0----00----00-------33333333333333333333333333333333-------|
A|-33-00-33-00-3-0-33-00-33-00-3-5+--11111111111111111111111111111111-------|
E|----00----00---0----00----00----------------------------------------------|

[Verse 2]

[Chorus]

Middle Eight: (a,b,c,b,c)
        a
e|--------------------------------------------------------------------------|
B|-11111-11111-1111--------------------11111-11111-1111---------------------|
G|-44444-44444-4444--3333333333333333--44444-44444-4444--3333333333333333---|
D|-------------------3333333333333333--------------------3333333333333333---|
A|-------------------1111111111111111--------------------1111111111111111---|
E|--------------------------------------------------------------------------|

        b
e|--------------------------------------------------------------------------|
B|--------------------------------------------------------------------------|
G|--------------------------------------------------------------------------|
D|77777777-5555/10101010\33333333-------------------------------------------|
A|55555555-3333/ 8 8 8 8\11111111-5555-7777---------------------------------|
E|----------------------------5555-7777-------------------------------------|
        
        c
e|--------------------------------------------------------------------|
B|--------------------------------------------------------------------|
G|--------------------------------------------------------------------|
D|77777777-10101010-5555-3333333--------------------------------------|
A|55555555--8 8 8 8-3333-1111111--1---1-1-----------------------------|
E|-------------------------------0-3-0-3-3-0--------------------------|

Collision:
e|--------------------------------------------------------------------|
B|--------------------------------------------------------------------|
G|-----------------------------------33333333333333333333333333333333-|
D|----00----00---0----00----00-5-7\--33333333333333333333333333333333-|
A|-33-00-33-00-3-0-33-00-33-00-3-5\--11111111111111111111111111111111-|
E|----00----00---0----00----00----------------------------------------|

e|--------------------------------------------------------------------|
B|--------------------------------------------------------------------|
G|-----------------------------------33333333333333333333333333333333-|
D|----00----00---0----00----00-------33333333333333333333333333333333-|
A|-33-00-33-00-3-0-33-00-33-00-3-5+--11111111111111111111111111111111-|
E|----00----00---0----00----00----------------------------------------|

Coda:
e|--------------------------------------------------------------------|
B|--------------------------------------------------------------------|
G|--------------------------------------------------------------------|
D|7----5/--10\--3----------7----5/--10\--3----------------------------|
A|5---3/-- 8\--1---5---7--5---3/-- 8\--1---5---7----------------------|
E|-----------------5---7-------------------5---7----------------------|

e|--------------------------------------------------------------------|
B|--------------------------------------------------------------------|
G|--------------------------------------------------------------------|
D|7----5/--10\--3----------7----5/--10\--3--------0-------------------|
A|5---3/-- 8\--1---5---7--5---3/-- 8\--1---5---7--0-------------------|
E|-----------------5---7-------------------5---7--0-------------------|



************************************
| /   slide up
| \   slide down
| ~   vibrato
| +   harmonic
************************************
Добавлено: 12.11.2013
Другие материалы по этой песне:

Страница создана 13.09.2013
http://primanota.ru/coheed-and-cambria/key-entity-extraction-iii-vic-the-butcher-chords.htm
Привет, Гость.
Предлагаем пройти революционный курс по гитаре.
Подарок от PrimaNota.Ru, забирай!