PrimaNota.ru - самый крупный в мире бесплатный архив песенных текстов, аккордов, табулатур и нот


Coheed & Cambria - Keeping The Blade - таба, видео

Регистрация Запомнить меня
Войти через:  Facebook Google Twitter Vk Yandex Mail.ru

Coheed & Cambria - Keeping The Blade - таба, видео

Печатать
Просмотров: 150
Уроки эстрадного вокала в Санкт-Петербурге
Авторы музыки: Coheed and Cambria
Авторы текста: Claudio Sanchez
Artist: Coheed And Cambria
Song: Keeping The Blade
Album: Good Apollo I'm Burning Star IV Vol. 1: From Fear Through The Eyes of Madness
This is the first song on their new record.  It's actually an orchestra instrumental track,
but it can be played on an acoustic guitar and still sound tasteful.

Standard Tuning(EADGBE)

Violin intro
E-----------------------------------|
B-----------------------------------|
G---6~-3-5~-(2x)--------------------|
D-----------------------------------|
A-----------------------------------|
E-----------------------------------|

Then the piano plays something, and the violin plays this under it.
Listen for timing.
E------------------------------------|
B------------------------------------|
G----6~--1--3~---6~--13--11--10~-8-6-|
D------------------------------------|
A------------------------------------|
E------------------------------------|


Heres the bass part, just in case you want it.
This also goes along with the piano part.
Once again, listen for timing.
E-----------------------------------|
B-----------------------------------|
G-----------------------------------|
D-----------------------------------|
A----3~~----------3~~---------------|
E----------4~~-----------4~~--------|

Then it stops on this chord.
E-----------------------------------|
B-----------------------------------|
G-----3~~---------------------------|
D-----3~~---------------------------|
A-----------------------------------|
E-----------------------------------|


Let it ring for a little while, then come in with this
E-----------------------------------|
B-----------------------------------|
G--3-3-5-6-5-3-10-8~----------------|
D---3-------------------------------|
A-----------------------------------|
E-----------------------------------|

E-----------------------------------|
B-----------------------------------|
G-3-3-5-3-3-5-6-5-3-10-13~----------|
D--3-----3--------------------------|
A-----------------------------------|
E-----------------------------------|

E-----------------------------------|
B--10--15~-13-11-10-11-10-8-6-8-5---|
G-----------------------------------|
D-----------------------------------|
A-----------------------------------|
E-----------------------------------|

E-----------------------------------|
B-----------------------------------|
G--6-4~-6-3-------------------------|
D------------6-4-3------------------|
A-----------------------------------|
E-----------------------------------|

This next part is best fingerpicked.
E-----------------------------------|
B-----------------------------------|
G------------3~---------------------|
D-----------(4)----6-4--3~--3-4-----|
A-1~-3-4-6--(4)--------(3)-4---4-3--|
E------------2~---------1~----------|

E-----------------------------------|
B-----------------------------------|
G------------3~---------------------|
D-----------(4)----6-4--3~----------|
A-1~-3-4-6--(4)--------(3)----4-4-3-|
E------------2~---------1~----------|

Repeat as neccesary, then end the song with.
E-----------------------------------|
B-----------------------------------|
G-----------------------------------|
D-----------------------------------|
A-1~~-------------------------------|
E-----2~~--1~~~~~-------------------|

Any suggestions or thanks, send it to iggy409@hotmail.com
Добавлено: 15.06.2012
Другие материалы по этой песне:

Страница создана 05.04.2012
http://primanota.ru/coheed-and-cambria/keeping-the-blade-chords.htm
Привет, Гость.
Предлагаем пройти революционный курс по гитаре.
Подарок от PrimaNota.Ru, забирай!