PrimaNota.ru - самый крупный в мире бесплатный архив песенных текстов, аккордов, табулатур и нот


Coheed & Cambria - In Keeping Secrets Of Silent Earth 3 Live - таба, видео

Регистрация Запомнить меня
Войти через:  Facebook Google Twitter Vk Yandex Mail.ru

Coheed & Cambria - In Keeping Secrets Of Silent Earth 3 Live - таба, видео

Печатать
Просмотров: 87
Tabbed by: VernalEndymion
Instagram: gingerfish365
Coheed & Cambria

In Keeping Secrets Of silent Earth: 3 (Live)

Tuning: Standard eBGDAE

This is only what Claudio is playing and how he plays it live. He changes it up a bit from time to time but 
this is based on one of his most popular performances of this song. Youtube vids of tutorial and performance 
coming soon! 
Message me on Instagram for updates. Enjoy!

Key

.  - palm mute
/  - slide up and down to
b  - Bend
() - Natural harmonics
*  - Pinch harmonics
h  - Hammer
p  - Pull off
"  - Tremolo Picking
x  - Mute


1st half intro
e|-------------------------------------------------------------------|
B|-------------------------------------------------------------------|
G|-------------------------------------------------------------------|
D|-------------------------------------------------------------------|
A|---11-11---11-11---11---11\12-11-----11-11---11---11-12-14-12-11p0-|
E|-9-------9-------9----9----------9-0-------0----0------------------|

e|----------------------------------------------------|
B|----------------------------------------------------|
G|----------------------------------------------------|
D|--------------------------------------------------9-|
A|-----h9-9-9---9-9---9---9/11-9-7p0-----h7-7-7---7---|
E|-0h7--------7-----7---7------------0h5--------5-----|

2nd half intro/Chorus (chords)
e|----------------|
B|----------------|
G|----------------|
D|-11---2---9---7-|
A|-11---2---9---7-|
E|-9----0---7---5-|

Verse
e|------------------------------------|
B|------------------------------------|
G|------------------------------------|
D|-6-6------6-------------------------|
A|-4-4--4-7---7-6-6h7-----------6h7p6-|
E|--------------------77-777-55-------|
   . .                .. ... ..
Pechorus 
e|-------------------------|--|------------------------|
B|-------------------------|--|------------------------|
G|-------------------------|--|------------------------|
D|---------6---------------|X3|------------------------|
A|-440|--|-4-6-7-9---------|--|-440|--|-666666--777777-|
E|-220|X4|---4-5-7-7540----|--|-220|X4|-444444--555555-|
                   ...
Chorus pt1
e|---------------------------------------------------------------|
B|---------------------------------------------------------------|
G|---------------------------------------------------------------|
D|---------------------------------------------------------------|
A|-11|---|-11-11-11-11-11-11-9-9-9-9-9-9-7-7-7-7-7-7-9-9-9-9-9-9-|
E|-9-|x24|-0--0--0--0--0--0--0-0-0-0-0-0-0-0-0-0-0-0-0-0-0-0-0-0-|
              .  .  .  .  .    . . . . .   . . . . .   . . . . . 
Chorus pt2
e|-------------------|
B|-------------------|
G|-------------------|
D|-------------------|
A|-9|---|-7-7-7-|--|-|
E|-7|x24|-5-5-5-|x8|-| 
            . .

Phase II  
e|----------------------------------------------------------------|--|---------|
B|----------------------------------------------------------------|--|---------|
G|----------------------------------------------------------------|--|---------|
D|-2-2---------2-2-----------2-2----------------0-2-0-5-4-2-------|X2|---------|
A|-2-2-2-2h3-2-2-2-2-2h3-3\5-2-2-2-2h3-2--0-2-3-------------5-3-2-|--|-0-------|
E|-0-0---------0-0-----------0-0----------------------------------|--|---3-2-0-|

Phase III
e|---------------------------------------------------------------------------------------------|
B|---------------------------------------------------------------------------------------------|
G|---------------------------------------------------------------------------------------------|
D|-------12----------------12----------------12----------14-15-17-15-14/12-12-14----12-14------|
A|-14-15----14-15----14-15----14-15----14-15----14-15-12-------------------------15-------15p0-|
E|----------------12----------------12---------------------------------------------------------|


e|------------------------------------------------------------------------------------------------|
B|------------------------------------------------------------------------------------------------|
G|------------------------------------------------------------------------------------------------|
D|----------12----------------12----------------12----------14-15-17-15-14/12-12-14----12-14------|
A|----14-15----14-15----14-15----14-15----14-15----14-15-12-------------------------15-------15p0-|
E|-12----------------12----------------12---------------------------------------------------------|


e|-----------------------------------------------------------------------------------------|
B|-----------------------------------------------------------------------------------------|
G|-----------------------------------------------------------------------------------------|
D|----------12----------------12----------------12----------14-15-17-15-14/12-12-14----12/-|
A|----14-15----14-15----14-15----14-15----14-15----14-15-12-------------------------15-----|
E|-12----------------12----------------12--------------------------------------------------|


Phase IV
e|---------------------------------|
B|---------------------------------|
G|-------------------------0-------|
D|-----5-5-3-2-0-2-------0---0-----|
A|---3-------------3---5-------5/7-|
E|-1-----------------3-------------|


Phase V
e|--------------------------------------------------------|
B|--------------------------------------------------------|
G|--------------------------------------------------------|
D|-7----------3--------7----------3-----------------------|
A|-7-7h8-7\\--3-5--3-2-7-7h8-7\\--3-2-3-5-5-3-2-0-2-0-----|
E|-5----------1--------5----------1-------------------8-7-|





    
Добавлено: 12.10.2015
Другие материалы по этой песне:
  • Аккорды и текст

Страница создана 12.10.2015
http://primanota.ru/coheed-and-cambria/in-keeping-secrets-of-silent-earth-3-live-chords.htm
Привет, Гость.
Предлагаем пройти революционный курс по гитаре.
Подарок от PrimaNota.Ru, забирай!