PrimaNota.ru - самый крупный в мире бесплатный архив песенных текстов, аккордов, табулатур и нот


Coheed & Cambria - In Keeping Secrets Of Silent Earth - аккорды и текст, таба, видео

Регистрация Запомнить меня
Войти через:  Facebook Google Twitter Vk Yandex Mail.ru

Coheed & Cambria - In Keeping Secrets Of Silent Earth - аккорды и текст, таба, видео

Печатать
Просмотров: 139
In Keeping Secrets Of Silent Earth
Coheed & Cambria
In Keeping Secrets of Silent Earth
Coheed And Cambria
Regular Tuning...

s= slide
b=bend
h=hammer on

INTRO...


e-----------------------------------------------------------------|
B-----------------------------------------------------------------|
G-----------------------------------------------------------------|
D----6-6---6-6---6---6S7-6--0---6-6---6---6H7-9--7-6--6H7S2-------|
A--4-----4-----4---4----------------------------------------------|
E-----------------------------0-----0---0-------------------------|


|-----------------------------------------------------------------|
|-----------------------------------------------------------------|
|-----------------------------------------------------------------|
|--------4-4---4-4---4---4S6-4-0----------------9-----------------|
|--0H2-2-----2-----2---2-------------7-7---7----------------------|
|--------------------------------4S5-----5---5--------------------|


e-----------------------------------------------------------------|
B-----------------------------------------------------------------|
G--9-9-9-9-9-9-9-9-9-9-9-9-9-9-9-9-9-9-9-9-9-9-9-9-9-9-9-11-9-8---|
D-----------------------------------------------------------------|
A--7-7-7-7-6-6-6-6-7-7-7-7-6-6-6-6-7-7-7-7-7-7-6-6-6-6-6--9-7-6---|
E-----------------------------------------------------------------|


e-------------------------------------|-----------------------------------
B-------------------------------------|-- 12---12---12---12--10---10---10-|
G-------------------------------------|-----------------------------------|
D-------------------------------------|9-9----9----9----9----9----9--9----|
A-0H4--4H5--5H9-11-9-7-9-7-6-7-6-2-4--|-----------------------------------|
E-------------------------------------|-----------------------------------|

VERSE...

e----------------------------------|----------------------------|
B----------------------------------|----------------------------|
G---6-6----------------------------|------------------6---------|
D---6-6----------------9-9--7-7----|---4-4-4-4-4-4-4--6-6-7-9---|
A---4-4---4S11--7-6-7--9-9--7-7----|---4-4-4-4-4-4-4--4-6-7-9---|
E----------------------7-7--5-5----|---2-2-2-2-2-2-2----4-5-7---|


CHORUS...
e------------------------------------------------------|
B------------------------------------------------------|
G------------------------------------------------------|
D--4-4-4-4-4-4-4-4--9-9-9-9-9-9-9--7X7X7X7X7X7X7X7X7---|
A--4-4-4-4-4-4-4-4--9-9-9-9-9-9-9--7X7X7X7X7X7X7X7X7---|
E--2-2-2-2-2-2-2-2--7-7-7-7-7-7-7--5X5X5X5X5X5X5X5X5---|

e----------------------------------------------------------|
B----------------------------------------------------------|
G----------------------------------------------------------|
D---4-4---------4-4---------4-4---------4-4------2---------|
A---4-4--2-4-2--4-4--2-4-2--4-4--2-4-2--4-4--2-4---4-2-4---|
E---2-2---------2-2---------2-2---------2-2----------------|

|-----------------------------------------------------------------|
|-----------------------------------------------------------------|
|------------------------------------------------2----------------|
|---4-4------2--4-4------2--4-4------2--4-4--2H4---3-2--------4---|
|---4-4--2-4----4-4--2-4----4-4--2-4----4-4------------4-2-0--4---|
|---2-2---------2-2---------2-2---------2-2-------------------2---|


e-------------------------------------------------------------------------|
B-----------------------------------------------------8-6-5H0-------------|
G---------7-------------7-------------7----------9-10---------------------|
D----9-10---9-10---9-10---9-10---9-10---9-10--7---------------------------|
A--7-------------7-------------7------------------------------------------|
E-------------------------------------------------------------------------|

|------------------------|
|------------------------|
|------------------------|
|---10-14-10-12-14-12S9--|
|------------------------|
|------------------------|


|-----------------------------------|
|-----------------------------------|
|-------------------------------0---|
|------5-5--5H3--3S2--2H0---0-------|
|--0H3--------------------3---3-----|
|-----------------------------------|

ENDING...

e-------------------|
B-------------------|
G-------------------|
D---3-------7-5-3---|
A---3-------7-5-3---|
E---1-------5-3-1---|
Добавлено: 11.07.2012
Другие материалы по этой песне:

Страница создана 27.06.2012
http://primanota.ru/coheed-and-cambria/in-keeping-secrets-of-silent-earth--chords.htm
Привет, Гость.
Предлагаем пройти революционный курс по гитаре.
Подарок от PrimaNota.Ru, забирай!