PrimaNota.ru - самый крупный в мире бесплатный архив песенных текстов, аккордов, табулатур и нот


Coheed & Cambria - Here To Mars - аккорды и текст, таба, бас-таба, видео

Регистрация Запомнить меня
Войти через:  Facebook Google Twitter Vk Yandex Mail.ru

Coheed & Cambria - Here To Mars - аккорды и текст, таба, бас-таба, видео

Печатать
Просмотров: 96
Here To Mars
Coheed & Cambria
Hi Everyone,

Here is the tab for Here To Mars by Coheed and Cambria.

The tab is from the acoustic version by Hold Harbour (link below).

https://www.youtube.com/watch?v=soDeQMww5eE


The tab is for Claudio's guitar part. If you're playing along with the
Coheed recording just ignore "Verse Acoustic*)


Standard tuning

Verse
|-----------------------------------------------------------------------------|
|-----------------------------------------------------------------------------|
|-----------------------------------------------------------------------------|
|------7-----7----------10------10--------------------------------------------|
|--5-8---5-8---5-8-8-12----8-12----8-12------8------8------------8------8-----|
|---------------------------------------6-10---6-10---6-106--10---6-10---6-10-|

Verse* Acoustic Version by Hold Harbour)
|--------------------------------------------------------------------|
|--------------------------------------------------------------------|
|--------------------------------------------------------------------|
|------3-----7---7-----7-----10---10---------------------------------|
|--5-5-5-5-5-5-5-5-8-8-8-8-8-8--8-8------5-----8---8-----5-----8---8-|
|------------------------------------6-6-6-6-6-6-6-6-6-6-6-6-6-6-6-6-|

Pre Chorus
|-----------|--------|--------|--------|------------------|
|-----------|--------|--------|--------|------------------|
|-----------|--------|--------|--------|------------------|
|-----------|---7----|---10---|--------|---5---------8----|
|------8----|---5----|---8----|---8----|---5---------8----|
|------6----|--------|--------|---6----|---3---------6----|

Chorus
|----------|--------|--------|--------|
|----------|--------|--6-----|--------|
|----------|---5----|--7-----|--7-----|
|----3-----|---5----|--7-----|--8-----|
|----3-----|---3----|--5-----|--8-----|
|----1-----|--------|--------|--6-----|
Добавлено: 27.02.2016
Другие материалы по этой песне:

Страница создана 13.02.2016
http://primanota.ru/coheed-and-cambria/here-to-mars-chords.htm
Привет, Гость.
Предлагаем пройти революционный курс по гитаре.
Подарок от PrimaNota.Ru, забирай!