PrimaNota.ru - самый крупный в мире бесплатный архив песенных текстов, аккордов, табулатур и нот


Coheed & Cambria - Gravemakers And Gunslungers - бас-таба, видео

Регистрация Запомнить меня
Войти через:  Facebook Google Twitter Vk Yandex Mail.ru

Coheed & Cambria - Gravemakers And Gunslungers - бас-таба, видео

Печатать
Просмотров: 114
Уроки эстрадного вокала в Санкт-Петербурге
Anyways - used a Powertab uploaded onto Cobalt and Calcium for general use and tabbed 
the bassline - it's great fun so enjoy playing the song.

Mic Todd FTW!!!As recorded by Coheed And Cambria
(From the 2007 Album GOOD APOLLO I'M BURNING STAR IV VOLUME TWO: NO WORLD FOR TOMORROW)

Words by Claudio Sanchez

Music by Coheed And Cambria
Arranged by Coheed And Cambria
Transcribed by Felkara
Tuning - DADG

  Q=169
 4/4
  Gtr I
  H..       E      +E  E E E E E E E   E E E E E E E E
|--------------||--------------------|---5-------------|
|--------------||o---------------5-7-|-5---7-5---------|
|-----------3--||o-(3)-5-5---5-5-----|---------8-5---3-|
|--------------||--------------------|-------------0---|


  +E  E E E E E E E   E E E E E Q  E
|-------------------|-----------------|
|---------3---------|-----------------|
|-(3)-5-------5-----|--------------3--|
|-----------------3-|-5-5-5-0-5-3-----|


  +E  E E E E E E E   E E E E E E E E   +E  E E Q  E E E   +E  E E Q  E E E
|-------------------|---5-------------|------------------|-------------------||
|---------------5-7-|-5---7-5---------|------------------|------------------o||
|-(3)-5-5---5-5-----|---------8-5-----|------------------|----------------3-o||
|-------------------|-------------0-5-|-(5)-5-0-3--3-0-8-|-(8)-8-0-7--7-0----||


    +E  E E E E E E E   E E E E E E E E   +E  E E E E E E E   E E E E E Q  E
||--------------------|-----------------|-------------------|-----------------|
||o-------------------|-----------------|---------3---------|-----------------|
||o-(3)-5-5---5-5---3-|-5-5---3-5-5---3-|-(3)-5-------5-----|--------------3--|
||--------------------|-------------0---|-----------------3-|-5-5-5---5-3-----|


  1.
  +E  E E E E E E E   E E E E E E E E   +E  E E Q  E E E   +E  E E Q  E E E
|-------------------|-----------------|------------------|-------------------||
|-------------------|---------3-------|------------------|------------------o||
|-(3)-5-5---5-5---0-|-3-5---5---5-----|------------------|----------------3-o||
|-------------------|-------------0-5-|-(5)-5-0-3--3-0-8-|-(8)-8-0-7--7-0----||


  2.
  +E  E E E E E E E   E E E E E E E E   +E  E E Q  E E E   +E  E E Q  E E E
|-------------------|-----------------|------------------|------------------|
|-------------------|---------3-------|------------------|------------------|
|-(3)-5-5---5-5---0-|-3-5---5---5-----|------------------|------------------|
|-------------------|-------------0-5-|-(5)-5-0-3--3-0-8-|-(8)-8-0-7--7-0-8-|


  E E E E E E E E   E E E E E E E E   +E  E E E E E E E   E E E E E E E E
|-----------------|-----------------|-------------------|-----------------|
|-----------------|-----------------|-------7---8-7-5---|-----7---8-7-5---|
|-----------------|---5-------3---5-|-(5)-5---5-------5-|-5-5---5---------|
|-8-8-0-7-8-0-7-8-|-7---8-7-5---0---|-------------------|---------------8-|


  +E  E E E E E E E   E E E E E E E E   +E  E E E E E E E   E E E E E E E E
|-------------------|-----------------|-------------------|-----------------|
|-------------------|-----------------|-------7---8-7-5---|-----7---8-7-5---|
|-------------------|---5-------3---5-|-(5)-5---5-------5-|-5-5---5-------3-|
|-(8)-8-0-7-8-0-7-8-|-7---8-7-5---0---|-------------------|-----------------|


  +E  E E E E E E E   E E E E E E E E   +E  E E E E E E E   +E  E E E E E E E
|-----------3-2-----|-----------------|-------------------|-------------------|
|-------5-------2---|-----3---2-3-2---|-------3---2-3-2---|-------3---2-3-2---|
|-(3)-3---3-------3-|-3-3---3-------1-|-(1)-1---1-------1-|-(1)-1---1-------3-|
|-------------------|-----------------|-------------------|-------------------|


  +E  E E E E E E E   E E E E E E E E   +E  E E E E E E E   +E  E E E E E E E
|-------------------|-----------------|-------------------|-------------------|
|-------3---2-3-2---|-----3---2-3-2---|-------3---2-3-2---|-------------------|
|-(3)-3---3-------3-|-3-3---3-------1-|-(1)-1---1---------|-----------------3-|
|-------------------|-----------------|-----------------3-|-(3)-2-3-2-3-5-3---|


  +E  E E E E E E E   E E E E E E E E   +E  E E E E E E E   E E E E E Q  E
|-------------------|---5-------------|-------------------|------------------|
|---------------5-7-|-5---7-5---------|---------3---------|------------------|
|-(3)-5-5---5-5-----|---------8-5---3-|-(3)-5-------5-----|--------------3---|
|-------------------|-------------0---|-----------------3-|-5-5-5-0-5-3------|


  +E  E E E E E E E   E E E E E E E E   +E  E E Q  E E E   +E  E E Q  E E E
|-------------------|---5-------------|------------------|------------------|
|---------------5-7-|-5---7-5---------|------------------|------------------|
|-(3)-5-5---5-5-----|---------8-5-----|------------------|----------------3-|
|-------------------|-------------0-5-|-(5)-5-0-3--3-0-8-|-(8)-8-0-7--7-0---|


    +E  E E E E E E E   E E E E E E E E   +E  E E E E E E E   E E E E E Q  E
||--------------------|-----------------|-------------------|---------------|
||o-------------------|-----------------|---------3---------|---------------|
||o-(3)-5-5---5-5---3-|-5-5---3-5-5---3-|-(3)-5-------5-----|--------------3|
||--------------------|-------------0---|-----------------3-|-5-5-5---5-3---|


  1.
  +E  E E E E E E E   E E E E E E E E   +E  E E Q  E E E   +E  E E Q  E E E
|-------------------|-----------------|------------------|-------------------||
|-------------------|---------3-------|------------------|------------------o||
|-(3)-5-5---5-5---0-|-3-5---5---5-----|------------------|----------------3-o||
|-------------------|-------------0-5-|-(5)-5-0-3--3-0-8-|-(8)-8-0-7--7-0----||


  2.
  +E  E E E E E E E   E E E E E E E E   +E  E E Q  E E E   +E  E E Q  E E E
|-------------------|-----------------|------------------|------------------|
|-------------------|---------3-------|------------------|------------------|
|-(3)-5-5---5-5---0-|-3-5---5---5-----|------------------|------------------|
|-------------------|-------------0-5-|-(5)-5-0-3--3-0-8-|-(8)-8-0-7--7-0-8-|


  E E E E E E E E   E E E E E E E E   +E  E E E E E E E   E E E E E E E E
|-----------------|-----------------|-------------------|-----------------|
|-----------------|-----------------|-------7---8-7-5---|-----7---8-7-5---|
|-----------------|---5-------3---5-|-(5)-5---5-------5-|-5-5---5---------|
|-8-8-0-7-8-0-7-8-|-7---8-7-5---0---|-------------------|---------------8-|


  +E  E E E E E E E   E E E E E E E E   +E  E E E E E E E   E E E E E E E E
|-------------------|-----------------|-------------------|-----------------|
|-------------------|-----------------|-------7---8-7-5---|-----7---8-7-5---|
|-------------------|---5-------3---5-|-(5)-5---5-------5-|-5-5---5-------3-|
|-(8)-8-0-7-8-0-7-8-|-7---8-7-5---0---|-------------------|-----------------|


  +E  E E E E E E E   E E E E E E E E   +E  E E E E E E E   +E  E E E E E E E
|-----------3-2-----|-----------------|-------------------|-------------------|
|-------5-------2---|-----3---2-3-2---|-------3---2-3-2---|-------3---2-3-2---|
|-(3)-3---3-------3-|-3-3---3-------1-|-(1)-1---1-------1-|-(1)-1---1-------3-|
|-------------------|-----------------|-------------------|-------------------|


  +E  E E E E E E E   E E E E E E E E   +E  E E E E E E E   +E  E E E E E E E
|-------------------|-----------------|-------------------|-------------------|
|-------3---2-3-2---|-----3---2-3-2---|-------3---2-3-2---|-------------------|
|-(3)-3---3-------3-|-3-3---3-------1-|-(1)-1---1---------|-------------------|
|-------------------|-----------------|-----------------3-|-(3)-2-3-2-3-5-3-0-|


    E E E E E E E E   E E E E E E E E   E E E E E E E E   E E E E E E E E
||------------------|-----------------|-----------------|-------------------||
||o-----------------|-----------------|-----------------|-------------3----o||
||o-----------------|-----------------|-----------------|-------0-3-5------o||
||----0-0---0-3-5-0-|---0-0---0-5-3-0-|---0-0---0-3-5-0-|---0-5---------0---||


    E E E E E E E E   E E E E E Q  E   +E  E E Q  q  E   E E E Q  q  E   4x
||------------------|----------------|-----------------|-----------------||
||o-----------------|----------------|-----------------|----------------o||
||o-----------------|--------------3-|-(3)-2-0---------|-3-2-0----------o||
||----0---0---0---0-|---0---0---5----|---------3--0--0-|-------3--0--0---||


    E E E E E E E E   E E E E E E E E   E E E E E E E E   E E E E E Q.
||------------------|-----------------|-----------------|-----------------|
||o-----------------|-----------------|-----------------|-----------------|
||o-----------------|-1---------------|-----------------|-----------------|
||--1-1-x-x-x-1-1-1-|---1-x-x-1-1-1-3-|-0-0-x-x-x-0-0-0-|-8-7-x-x-0-7\----|


                                                                |-3-|
  E E E E E E E E   E E E E E E E E   E E E E E E E E   E E E E Q Q Q
|-----------------|-----------------|-----------------|-----------------||
|-----------------|-----------------|-----------------|----------------o||
|-----------------|-1---------------|-----------------|---------1-0----o||
|-1-1-x-x-x-1-1-1-|---1-x-x-1-1-1-3-|-0-0-x-x-x-0-0-0-|-8-7-x-x-----3---||


  Q.   Q.   Q    Q.   Q.   Q    Q.   Q.   Q    Q   Q  E E E E
|--------------|--------------|--------------|-----------------|
|--------------|--------------|--------------|-----------------|
|-1----0-------|-1----0-------|-1----0-------|-1---0--------3--|
|-----------3--|-----------3--|-----------3--|--------0-3-0----|


  +E  E E E E E E E   E E E E E E E E   +E  E E E E E E E   E E E E E Q  E
|-------------------|---5-------------|-------------------|----------------|
|---------------5-7-|-5---7-5---------|---------3---------|----------------|
|-(3)-5-5---5-5-----|---------8-5---3-|-(3)-5-------5-----|--------------3-|
|-------------------|-------------0---|-----------------3-|-5-5-5-0-5-3----|


  +E  E E E E E E E   E E E E E E E E   +E  E E Q  E E E   +E  E E Q  E E E
|-------------------|-----------------|------------------|------------------|
|-------------------|-----------------|------------------|------------------|
|-(3)-5-5---5-5---3-|-5-5---3-5-5-----|------------------|----------------3-|
|-------------------|-------------0-5-|-(5)-5-0-3--3-0-8-|-(8)-8-0-7--7-0---|


  +E  E E E E E E E   E E E E E E E E   +E  E E E E E E E   E E E E E Q  E
|-------------------|---5-------------|-------------------|----------------|
|---------------5-7-|-5---7-5---------|---------3---------|----------------|
|-(3)-5-5---5-5-----|---------8-5---3-|-(3)-5-------5-----|--------------3-|
|-------------------|-------------0---|-----------------3-|-5-5-5-0-5-3----|


  +E  E E E E E E E   E E E E E E E E   +E  E E Q  E E E   +E  E E Q  E E E
|-------------------|-----------------|------------------|------------------|
|-------------------|---------3-------|------------------|------------------|
|-(3)-5-5---5-5---0-|-3-5---5---5-----|------------------|------------------|
|-------------------|-------------0-5-|-(5)-5-0-3--3-0-8-|-(8)-8-0-7--7-0-8-|


  E E E E E E E E   E E E E E E E E   +E  E E E E E E E   E E E E E E E E
|-----------------|-----------------|-------------------|-----------------|
|-----------------|-----------------|-------7---8-7-5---|-----7---8-7-5---|
|-----------------|---5-------3---5-|-(5)-5---5-------5-|-5-5---5---------|
|-8-8-0-7-8-0-7-8-|-7---8-7-5---0---|-------------------|---------------8-|


  +E  E E E E E E E   E E E E E E E E   +E  E E E E E E E   E E E E E E E E
|-------------------|-----------------|-------------------|-----------------|
|-------------------|-----------------|-------7---8-7-5---|-----7---8-7-5---|
|-------------------|---5-------3---5-|-(5)-5---5-------5-|-5-5---5-------3-|
|-(8)-8-0-7-8-0-7-8-|-7---8-7-5---0---|-------------------|-----------------|


    +E  E E E E E E E   E E E E E E E E   +E  E E E E E E E   +E  E E E E E E E
||------------3-2-----|-----------------|-------------------|------------------|
||o-------5-------2---|-----3---2-3-2---|-------3---2-3-2---|-------3---2-3-2--|
||o-(3)-3---3-------3-|-3-3---3-------1-|-(1)-1---1-------1-|-(1)-1---1-------3|
||--------------------|-----------------|-------------------|------------------|


  +E  E E E E E E E   E E E E E E E E
|-------------------|-----------------|
|-------3---2-3-2---|-----3---2-3-2---|
|-(3)-3---3-------3-|-3-3---3-------1-|
|-------------------|-----------------|


  +E  E E E E E E E   +E  E E E E E E E
|-------------------|--------------------||
|-------3---2-3-2---|-------------------o||
|-(1)-1---1---------|-----------------3-o||
|-----------------3-|-(3)-2-3-2-3-5-3----||


  +E  E E E E E E E   E E E E E E E E   +E  E E Q  E E E
|-------------------|---5-------------|------------------|
|---------------5-7-|-5---7-5---------|------------------|
|-(3)-5-5---5-5-----|---------8-5-----|------------------|
|-------------------|-------------0-5-|-(5)-5-0-3--3-0-8-|


  +E  E E Q  E E E   +E  E E E E Q   E
|------------------|-------------------*|
|------------------|-------------------*|
|----------------3-|-(3)-5-5---5-5\----*|
|-(8)-8-0-7--7-0---|-------------------*|


Duration Legend
---------------
W - whole; H - half; Q - quarter; E - 8th; S - 16th; T - 32nd; X - 64th; a - acciaccatura
+ - note tied to previous; . - note dotted; .. - note double dotted
Uncapitalized letters represent notes that are staccato (1/2 duration)
Irregular groupings are notated above the duration line
Duration letters will always appear directly above the note/fret number it represents the
duration for.  Duration letters with no fret number below them represent rests.  Multi-
bar rests are notated in the form Wxn, where n is the number of bars to rest for.  Low
melody durations appear below the staff

Tablature Legend
----------------
 h   - hammer-on
 p   - pull-off
 b   - bend
 pb  - pre-bend
 r   - bend release (if no number after the r, then release immediately)
 /\  - slide into or out of (from/to "nowhere")
 s   - legato slide
 S   - shift slide
  - natural harmonic
[n]  - artificial harmonic
n(n) - tapped harmonic
 ~   - vibrato
 tr  - trill
 T   - tap
 TP  - trem. picking
 PM  - palm muting
\n/  - tremolo bar dip; n = amount to dip
 \n  - tremolo bar down
 n/  - tremolo bar up
/n\  - tremolo bar inverted dip
 =   - hold bend; also acts as connecting device for hammers/pulls
 <>  - volume swell (louder/softer)
 x   - on rhythm slash represents muted slash
 o   - on rhythm slash represents single note slash

Misc Legend
-----------
 |  - bar
||  - double bar
||o - repeat start
o|| - repeat end
*|  - double bar (ending)
 :  - bar (freetime)
 $  - Segno
 &  - Coda
Tempo markers -  = BPM(8/16=s8/s16), where s8 = swing 8ths, s16 = swing 16ths


Добавлено: 15.05.2012
Другие материалы по этой песне:
  • Аккорды и текст

Страница создана 15.05.2012
http://primanota.ru/coheed-and-cambria/gravemakers-and-gunslungers-chords.htm
Привет, Гость.
Предлагаем пройти революционный курс по гитаре.
Подарок от PrimaNota.Ru, забирай!