PrimaNota.ru - самый крупный в мире бесплатный архив песенных текстов, аккордов, табулатур и нот


Coheed & Cambria - Ghost - таба, видео

Регистрация Запомнить меня
Войти через:  Facebook Google Twitter Vk Yandex Mail.ru

Coheed & Cambria - Ghost - таба, видео

Печатать
Просмотров: 84
-------------------------------------------------------------------------------
                             Ghost - Coheed And Cambria
-------------------------------------------------------------------------------
Tabbed by: Atticus01
E-mail:

Tuning: Standard


Main riff
e|----------------------------------------------------------------------------|
B|----------------------------------------------------------------------------|
G|----------------------------------------------------------------------------|
D|-------5-------5-------5-------5-------5-------5-------5-------5------------|
A|---3-------3-------3-------3-------3-------3-------3-------3----------------|
E|-5---5---5---5---5---5---5---5---1---1---1---1---1---1---1---1--------------|

Intro riff
e|------------------------|----------------------------------------------------|
B|---------------------8--|----------------------------------------------------|
G|---9-----------9---9----|-X3 THEN---7--9b------------------------------------|
D|-7---7\5--5--7---7------|----------------------------------------------------|
A|------------------------|----------------------------------------------------|
E|------------------------|----------------------------------------------------|

0:43
e|----------------------------------------------------------------------------|
B|----------------------------------------------------------------------------|
G|-----5---5---5-7----------5---5---5-7---------------------------------------|
D|-5h7---7---7-----7----5h7---7---7-----5-------------------------------------|
A|----------------------------------------------------------------------------|
E|----------------------------------------------------------------------------|

1:18 - 2:00
e|-------------------------------------------------------------------|--------|
B|-5-----5-----5----8-----8-----8-----5-----6-----6-----5-----5------|--------|
G|---5-----5-----5----5-----5-----5-----5-----5-----5-----5-----5----|-REPEAT-|
D|-----5-----5----------5-----5-----5-----5-----5-----5-----5-----5--|--------|
A|-------------------------------------------------------------------|--------|
E|-------------------------------------------------------------------|--------|




************************************

| /   slide up
| \   slide down
| h   hammer-on
| p   pull-off
| ~   vibrato
| +   harmonic
| x   Mute note
| b   Bend
| pb  Pre-bend
| br  Bend release
| pbr Pre-bend release
| brb Bend release bend

************************************
Добавлено: 13.02.2016
Вам также может быть интересно:
Другие материалы по этой песне:

Страница создана 13.02.2016
http://primanota.ru/coheed-and-cambria/ghost-chords.htm
Привет, Гость.
Предлагаем пройти революционный курс по гитаре.
Подарок от PrimaNota.Ru, забирай!