PrimaNota.ru - самый крупный в мире бесплатный архив песенных текстов, аккордов, табулатур и нот


Coheed & Cambria - Elf Power - текст песни, таба, видео

Регистрация Запомнить меня
Войти через:  Facebook Google Twitter Vk Yandex Mail.ru

Coheed & Cambria - Elf Power - текст песни, таба, видео

Печатать
Просмотров: 127
Tabbed by: coheedandnofx6   
AIM: xautumnxromance                
                            ::INTRO::  
                        
  Guitar #1 Clean
e|-------------------------------------------------------------------|
B|-----------------------------------2-----2-----2---------2-2-2-0---|
G|-----------------------------------2-----2-----2---------2-2-2-0---|
D|---4-4-4-2-2-2-4-4-4-4-2-2-2-4-4---x-----x-----x---------x-x-x-x---|
A|---2-2-2-0-0-0-2-2-2-2-0-0-0-2-2---2--2--2--2--2--2-2-2--2-2-2-2---|
E|--------------------------------------0-----0-----0-0-0------------|
PM   . . . . . . . . . . . . . . .      .     .     .   .
  
  Guitar #2 Distortion W/Feedback
e|--------------------------------|
B|---------10~------------10~-----|
G|---7~------------7~-------------|
D|--------------------------------|
A|--------------------------------|
E|--------------------------------|
                                  
                                 ::VERSE::
  Guitar #1                     w/Distortion
e|------------(4x)-|------------(4x)-|---------------(4x)-|----------------(4x)-|
B|-----------------|-----------------|--------------------|---------------------|
G|-----------------|-----------------|--------------------|---------------------|
D|-----------x-x---|-----------x-x---|--------------x-x---|---------------x-x---|
A|---5-5-5-5-x-x---|---9-9-9-9-x-x---|--10-10-10-10-x-x---|---12-12-12-12-x-x---|
E|---3-3-3-3-x-x---|---7-7-7-7-x-x---|---8--8--8--8-x-x---|---10-10-10-10-x-x---|
                    
                    Guitar #2
                  e|-----------------|
                  B|-----------------|
                  G|---9--11-12------|
                  D|---x--x--x-------|
                  A|---7--9--10------|
                  E|-----------------|


                              ::CHORUS::
  Guitar #1 
e|-------------------------------------------------------------------------|
B|-------------------------------------------------------------------------|
G|------------------------------9-9--9-9-9-9--7-7--7/9-7-5--5-5--5-5-5-5---|
D|------------------------------9-9--9-9-9-9--7-7--7/9-7-5--5-5--5-5-5-5---|
A|---5-(16x)--9-(16x)--7-(16x)--7-7--7-7-7-7--5-5--5/7-5-3--3-3--3-3-3-3---|
E|---3--------7--------5---------------------------------------------------|
PM   .        .        . 

e|------------------------------------------------------------------------|
B|------------------------------------------------------------------------|
G|-----------------------------9-9--9-9-9-9--7-7--7/9-7-5--5-5--5-5-5-5---|
D|-----------------------------9-9--9-9-9-9--7-7--7/9-7-5--5-5--5-5-5-5---|
A|---5-(8x)--2-(16x)--7-(16x)--7-7--7-7-7-7--5-5--5/7-5-3--3-3--3-3-3-3---|
E|---3-------0--------5---------------------------------------------------|
PM   .       .        .
e|-----------------------------------------------------|
B|-----------------------------------------------------|
G|-----------------------------------------------------|
D|---5-(16x)--4-(16x)--9-(16x)--7-(8x)--5~-------------|
A|---3--------2--------7--------5-------3~-------------|
E|-----------------------------------------------------|
PM   .        .        .        .

  Guitar #2
e|-------(4x)--|
B|----8p7------| 
G|-------------|
D|-------------|
A|-------------|
E|-------------|
                         ::POST CHORUS::
                           w/Distortion
e|-------------------------------------------------------------------|
B|-------------------------------------------------------------------|
G|-------------------------------------------------------------------|
D|---4-4-4-2-2-2-4-4-4-4-2-2-2-4-4---4-----4-----4---------4-4-4-0---|
A|---2-2-2-0-0-0-2-2-2-2-0-0-0-2-2---2--2--2--2--2--2-2-2--2-2-2-2---|
E|--------------------------------------0-----0-----0-0-0------------|
PM   . . . . . . . . . . . . . . .      .     .     .   .

e|----------------------------------------------|
B|----------------------------------------------|
G|----------------------------------------------|
D|-----4---4---4---4---4---4---4---4-4-4-0------|
A|---2-2-2-2-2-2-2-2-2-2-2-2-2-2-2-2-2-2-2------|
E|---0---0---0---0---0---0---0---0--------------|
PM   .   .   .   .   .   .   .   .

    ::FILL::
e|-------------|
B|-------------|
G|-------------|
D|-------------|
A|-----2-------|
E|-----0-------|

                    ::CLEAN INTERLUDE::
e|--------------------------|----------------------------|
B|--------------------------|----------------------------|
G|---0~----------0----------|-------------0--------------|
D|---4~----4---4---4---4-5--|-------4---4---4---4-5------|
A|---2~--2---2-------2------|-----2---2-------2----------|
E|---0~---------------------|---0------------------------|

  
Then back to distortion.
e|-----------------------------------------|
B|-----------------------------------------|
G|-----------------------------------------|
D|----------------------------9------------|
A|---4-(8x)--5-(8x)--10-(8x)--7--(8x)------|
E|---2-------3--------8--------------------|

Harmonics at end (close enough)
e|-------------------------|
B|-------------------------|
G|---7--9--7p5---5p3-------|
D|-------------9-----7-----|
A|-------------------------|
E|-------------------------|
Добавлено: 18.05.2012
Другие материалы по этой песне:
  • Аккорды и текст

Страница создана 18.05.2012
http://primanota.ru/coheed-and-cambria/elf-power-chords.htm
Привет, Гость.
Предлагаем пройти революционный курс по гитаре.
Подарок от PrimaNota.Ru, забирай!