PrimaNota.ru - самый крупный в мире бесплатный архив песенных текстов, аккордов, табулатур и нот


Coheed & Cambria - Al The Killer - таба, видео

Регистрация Запомнить меня
Войти через:  Facebook Google Twitter Vk Yandex Mail.ru

Coheed & Cambria - Al The Killer - таба, видео

Печатать
Просмотров: 89
------------------------------------------------------------------------------
			     Al the Killer ( Acoustic ) - Coheed and Cambria
-------------------------------------------------------------------------------
Tabbed by: david c.
Email: dc_99_dc@hotmail.com any corrections :)  some credit goes to the tab on MX
Tuning: Standard

Intro   Lead Guitar  Palm Muted
E|-------------------------------------------------------------------------------|
B|-------------------------------------------------------------------------------|
G|--------------------9-9----------------------------------------9-9-------------|
D|---------11-11-11-------11-11-9-9-12-12-9-9--------11-11-11------11-11-9-------|
A|--9-9-9---------------------------------------9-9-9----------------------------|
E|-------------------------------------------------------------------------------|


E|-------------------------------------------------------------------------------|
B|-------------------------------------------------------------------------------|
G|-------------------------------------------------------------------------------|
D|-9-12-12-----11-11--11-11-11-11-11-11-11-11-99999999-12-12-12-12-12-12-12------|
A|---------9-9--0--0---0--0---0--0--0--0--0--0--00000000-0--0--0--0---0--0--0----|
E|-------------------------------------------------------------------------------|

E|----------------------------------------------------------------------------------|
B|----------------------------------------------------------------------------------|
G|----------------------------------------------------------------------------------|
D|-12-11-11-11-11-11-11-11-11---Repeat---(Let off the mute at end of 2nd time)------|
A|--0--0--0--0--0--0--0--0--0-------------------------------------------------------|
E|----------------------------------------------------------------------------------|


Verse Lead Guitar
E|-----------------------------------------------------------------------------|
B|-----------------------------------------------------------------------------|
G|-9-11------------9-11-------------9-11-------------------12-11---------------|
D|------11-12-11-9------11-12-11-9-------11-12-11-9-12-14-------16-14-12-------|
A|-----------------------------------------------------------------------------|
E|-----------------------------------------------------------------------------|

EI-------12------------------12---------|-------|--------------------12-----------|
B|----14----12-14--------14-----12-14--|---8~--|--------------12----------8-7-----|
G|-11-----------------11---------------|-------|--------13/14----14----14---------|
D|-----------------12------------------|-------|--11/14---------------------------|
A|-------------------------------------|-------|----------------------------------|
E|-------------------------------------|-------|----------------------------------|

Verse Chords
e|-----------------------------------------------------------------------------|
B|-----------------------------------------------------------------------------|
G|-----------------------------------------------------------------------------|
D|-444444555555555555444444--Repeat many times as needed-----------------------|
A|-444444555555555555444444----------------------------------------------------|
E|-222222333333333333222222----------------------------------------------------|

Chorus Lead Guitar
e|-----------------------------------------------------------------------------|
B|-----------------------------------------------------------------------------|
G|-11-11-11-12-12-12-11-11-11-11-11-11-11-11-11-11-----------------------------|I
D|----------------------------------------------------11-11-11-12-12-12-11-----|
A|-----------------------------------------------------------------------------|
E|-----------------------------------------------------------------------------|

e|------------------------------------------------------------------------------|
B|------------------------------------------------------------------------------|
G|------------------------------9-9-9-10-10-10-9-9-9-9-9-9-9-9-7-7--------------|
D|-11-11-11-11-11-11-11-11-11--------------------------------------11-11-11-----|
A|------------------------------------------------------------------------------|
E|------------------------------------------------------------------------------|

e|-----------------------------------------------------------------------------|
B|-----------------------------------------------------------------------------|
G|-----------------------------------------------------------------------------|
D|-11-11-11-11-11-9-9-9-9-9-9-9-9----------------------------------------------|
A|-----------------------------------------------------------------------------|
E|-----------------------------------------------------------------------------|

Chorus Chords           Song for timing
e|-----------------------------------------------------------------------------|
B|-----------------------------------------------------------------------------|
G|----------7--------------4---2-----------------------------------------------|
D|--4-------7------5-------4---2-----------------------------------------------|
A|--4-------5------5-------2---0-----------------------------------------------|
E|--2--------------3-----------------------------------------------------------|

Lead Guitar - Bridge Solo
e|------------------------------------------------------------------------------|
B|------------------------------------------------------------------------------|
G|--9-6-9-7-6---6---------------------------------------------------------------|
D|------------9---7--9/11-9-7-9/11-9-7------------Repeat 4 times----------------|
A|------------------------------------------------------------------------------|
E|------------------------------------------------------------------------------|

Bridge Chords      See song for timing   ( Yep, that's it!)
e|-------------------------------------------------------------------------------|
B|-------------------------------------------------------------------------------|
G|---------7---------------------------------------------------------------------|
D|----4----7---------------------------------------------------------------------|
A|----4----5---------------------------------------------------------------------|
E|----2--------------------------------------------------------------------------|

Then, do the verse lead but with      DI----9-9-9-9-9- and stuff like that :D l8r PEACE
Добавлено: 29.11.2013
Другие материалы по этой песне:
  • Аккорды и текст

Страница создана 29.11.2013
http://primanota.ru/coheed-and-cambria/al-the-killer-chords.htm
Привет, Гость.
Предлагаем пройти революционный курс по гитаре.
Подарок от PrimaNota.Ru, забирай!