PrimaNota.ru - самый крупный в мире бесплатный архив песенных текстов, аккордов, табулатур и нот


Cogdill Jonathan - Life - таба, видео

Регистрация Запомнить меня
Войти через:  Facebook Google Twitter Vk Yandex Mail.ru

Cogdill Jonathan - Life - таба, видео

Печатать
Просмотров: 85
Уроки эстрадного вокала в Санкт-Петербурге
Written and tabbed by: Cogdill, Jonathan
Song: Life
Album currently in production.


INTRO:

E|-------------------------------------------------|
B|----0--------------------------------------------|
G|----------2--------------------------------------|
D|-------2-----------------------------------------|
A|-------------0--3--2--0--------------------------|
E|-------------------------0--3--2--1~~~--1--3-----|




Verse:
            Gmaj           D              Am
E|----------3--3-----------2--2----------0--0------|
B|----------3--3-----------3--3----------1--1------|
G|----------0--0-----------2--2----------2--2------|
D|----------0--0--------0-------------2------------|
A|-------2-----------0-------------0---------------|
E|----3--------------------------------------------|
            D  U           D  U          D  U  


            C
E|----------0--0-----------------------------------|
B|----------1--1-----------------------------------|
G|----------0--0-----------------------------------|
D|-------2-----------------------------------------|
A|----3--------------------------------------------|
E|-------------------------------------------------|
            D  U 



Chorus:
       (1 & 2 & 3 & 4) 
Strum: Gmaj / D / Am / C

  







Question and comments, please send to jon_cogdill@excite.com

     
Добавлено: 06.08.2013
Другие материалы по этой песне:
  • Аккорды и текст

Страница создана 06.08.2013
http://primanota.ru/cogdill-jonathan/life-chords.htm
Привет, Гость.
Предлагаем пройти революционный курс по гитаре.
Подарок от PrimaNota.Ru, забирай!