PrimaNota.ru - самый крупный в мире бесплатный архив песенных текстов, аккордов, табулатур и нот


Cog - The Spine - текст песни, таба, видео

Регистрация Запомнить меня
Войти через:  Facebook Google Twitter Vk Yandex Mail.ru

Cog - The Spine - текст песни, таба, видео

Печатать
Просмотров: 133
------------------------------------------------------------------
                  The Spine - Cog
------------------------------------------------------------------
Tabbed by: Kristyn Lee
Email: spot_the_village_loony_836@hotmail.com

Tuning: Drop C

1:16
D|----------------------------|
A|--5~---5~---5~---5~---------|
F|--7~---5~---4~---5~---------|x2
C|----------------------------|
G|----------------------------|
C|----------------------------|

1:33
D|-----------------------------------------|
A|--5---------5---------5---------5--------|
F|--7---------7---------7---------7--------|
C|------(7)-------(7)-------(7)-------(7)--|
G|-----------------------------------------|
C|-----------------------------------------|

2:09
D|----------------------------------------------------------|
A|--10--101010-10101010-1010\88-88/10-10101010-10101010-----|
F|--x---x-x-x--x-x-x-x--x-x--xx-xx-x--x-x-x-x--x-x-x-x------|
C|--7---7-7-7--7-7-7-7--7-7--55-55-7--7-7-7-7--7-7-7-7--0~--|
G|------------------------------------------------------0~--|
C|------------------------------------------------------0~--|

2:21
D|-------------------------------------|
A|-------------------------------------|
F|-------------------------------12----|
C|--10-(x32)--9-(x16)--12-(x12)--------|
G|-------------------------------------|
C|-------------------------------------|
  

2:40
D|-----------------------------------------|
A|-----------------------------------------|
F|-----------------------------------------|
C|-7-7777---7-7777---7-7777---7-7777-------|
G|--------0--------0--------0--------0-----|
C|-----------------------------------------|
   . ....   . ....   . ....   . ....

2:58
D|----------------------------------------------------------|
A|--101010101010101010101010\8888/1010101010101010101010\---|
F|--x-x-x-x-x-x-x-x-x-x-x-x--xxxx-x-x-x-x-x-x-x-x-x-x-x-----|
C|--7-7-7-7-7-7-7-7-7-7-7-7-\5555/7-7-7-7-7-7-7-7-7-7-7\----|
G|----------------------------------------------------------|
C|----------------------------------------------------------|

D|--------------------------------------------------------------|
A|-8885/1010101010101010101010\88888888/1010101010101010101010^-|
F|-xxxx-x-x-x-x-x-x-x-x-x-x-x-xxxxxxxx-x-x-x-x-x-x-x--x-x-x-x---|
C|-5555/7-7-7-7-7-7-7-7-7-7-7-\55555555/7-7-7-7-7-7-7-7-7-7-7^^-|
G|--------------------------------------------------------------|
C|--------------------------------------------------------------|

3:19
D|-------------------------------------|
A|-------------------------------------|
F|-------------------------------12----|
C|--10-(x32)--9-(x16)--12-(x12)--------|
G|-------------------------------------|
C|-------------------------------------|

3:38

D|----------------------------------------------------------|
A|--101010101010101010101010\8888/1010101010101010101010\---|
F|--x-x-x-x-x-x-x-x-x-x-x-x--xxxx-x-x-x-x-x-x-x-x-x-x-x-----|
C|--7-7-7-7-7-7-7-7-7-7-7-7-\5555/7-7-7-7-7-7-7-7-7-7-7\----|
G|----------------------------------------------------------|
C|----------------------------------------------------------|

D|----------------------------------------------------------------|
A|-8885/1010101010101010101010\88888888/1010101010101010101010----|
F|-xxxx-x-x-x-x-x-x-x-x-x-x-x-xxxxxxxx-x-x-x-x-x-x-x--x-x-x-x-----|
C|-5555/7-7-7-7-7-7-7-7-7-7-7-\55555555/7-7-7-7-7-7-7-7-7-7-7--0~-|
G|-------------------------------------------------------------0~-|
C|-------------------------------------------------------------0~-|

3:59
D|------------------------------------------|
A|--5--5h6/8-8-10-8-5h6p5---5h6/8-8-8-6-5---|
F|------------------------------------------|x4
C|------------------------------------------|
G|------------------------------------------|
C|------------------------------------------|

4:19
D|----------------------------|
A|--5~---5~---5~---5~---------|
F|--7~---5~---4~---5~---------|x6
C|----------------------------|
G|----------------------------|
C|----------------------------|


5:12
D|------------------------|
A|------------------------|
F|------------------------|
C|------------------------|
G|--7\33-33/55\33---------|
C|--7\33-33/55\33---------|


5:14
D|--------------------------------------------------------|
A|--------------------------------------------------------|
F|--------------------------------------------------------|
C|--------------------------------------------------------|
G|--88p777-77-77--88p777-77-77-88p777-77-77-88p777-77-77--|
C|--88p777-77-77--88p777-77-77-88p777-77-77-88p777-77-77--|

D|------------------------|
A|------------------------|
F|------------------------|
C|------------------------|
G|--7\33-33/55\33---------|
C|--7\33-33/55\33---------|



5:52
D|---------------------------------|
A|---------------------------------|
F|---------------------------------|
C|---------------------------------|
G|--7/10-1010\7/12--88-8p7-77777---|
C|--7/10-1010\7/12--88-8p7-77777---|


D|--------------------------------------|
A|--------------------------------------|
F|--------------------------------------|
C|--2--2h3/55-7-5-2h3p2--2h3/55-5-3-2---|
G|--------------------------------------|
C|--------------------------------------|

D|----------------------------|
A|--5~---5~---5~---5~---------|
F|--7~---5~---4~---5~---------|x7
C|----------------------------|
G|----------------------------|
C|----------------------------|



| .  palm mute
| /  slide up
| \  slide down
| h  hammer-on
| p  pull-off
| ~  vibrato
| +  harmonic
| x  Mute note
=====================================================================
Добавлено: 12.07.2012
Другие материалы по этой песне:

Страница создана 22.02.2012
http://primanota.ru/cog/the-spine-chords.htm
Привет, Гость.
Предлагаем пройти революционный курс по гитаре.
Подарок от PrimaNota.Ru, забирай!