PrimaNota.ru - самый крупный в мире бесплатный архив песенных текстов, аккордов, табулатур и нот


Cog - Silence Is Violence - текст песни, таба, видео

Регистрация Запомнить меня
Войти через:  Facebook Google Twitter Vk Yandex Mail.ru

Cog - Silence Is Violence - текст песни, таба, видео

Печатать
Просмотров: 131
-------------------------------------------------------------------------------
                             Silence is Violence - Cog
-------------------------------------------------------------------------------
Tabbed by:Jarrah Harburn
Email:jarrah_h@hotmail.com

Tuning: Down a step and drop D (CGCFAD)

Start with clean guitar w/Delay set for short interval, but reasonably powerful.
First riff should be toned out with your on-guitar control, then bring in the
sound for the last repetition, and leave it full for remainder of song.

D|---------------------------------------------------------------------------|
A|---------------------------------------------------------------------------|
F|---------------------------------------------------------------------------|
C|---55555-(5)-5-(5)-5-(5)-5-------55555-(5)-5-(5)-5-(5)-5-------------------|     (2X)
G|---------------------------------------------------------------------------|
C|---------------------------------------------------------------------------|

"How high can you go?" (2X)

"I got a friend and he's running away.
You know he's here but he ain't gonna stay."

D|---------------------------------------------------------------------------|
A|---------------------------------------------------------------------------|
F|---------------------------------------------------------------------------|
C|---5555h7-------------------5555h7---------------------5555p3--------------|     
G|----------5-5-888-5-5-----------------5-5-888-5-5--------------------------|
C|---------------------------------------------------------------------------|

"Too much of nothing on a finger roll,
and with the weather man stealing the show."

D|---------------------------------------------------------------------------|
A|---------------------------------------------------------------------------|
F|-----------------0----------------0--------------0--------------0----------|
C|---5555h7----7-----7---7------7-----7---7----7-----7---7----7-----7---7----|
G|-----------8---8-----8------8---8-----8----8---8-----8----8---8-----8------|
C|---------------------------------------------------------------------------|

"How high can you go?" 

D|---------------------------------------------------------------------------|
A|---------------------------------------------------------------------------|
F|---------------------------------------------------------------------------|
C|---5555h7-------------------5555h7---------------------5555p3--------------|      
G|----------5-5-888-5-5-----------------5-5-888-5-5--------------------------|    (Palm mute A string)
C|---------------------------------------------------------------------------|

"I saw the blood on the merry-go-round,
I gotta skank to the other sound."

D|---------------------------------------------------------------------------|
A|---------------------------------------------------------------------------|
F|-----------------0----------------0--------------0--------------0----------|
C|---5555h7----7-----7---7------7-----7---7----7-----7---7----7-----7---7----|
G|-----------8---8-----8------8---8-----8----8---8-----8----8---8-----8------|
C|---------------------------------------------------------------------------|

"How high" (4X)

D|---------------------------------------------------------------------------|
A|---------------------------------------------------------------------------|
F|-------2---0h2---2------2---0h2---2------2---0h2---2-------2---0h2---2-----|
C|-----3---3-----3------3---3-----3------3---3-----3-------3---3-----3-------|       (2X)
G|---------------------------------------------------------------------------|
C|---------------------------------------------------------------------------|

D|---------------------------------------------------------------------------|
A|---------------------------------------------------------------------------|
F|-----------2---2---2---2---------------------------------------------------|
C|-----3-3-3---3---3---3-----------------------------------------------------|       (Palm Mute)
G|---------------------------------------------------------------------------|
C|---------------------------------------------------------------------------|

CHORUS
Distort the guitar, removing all delay effect.

"Silence, so much violence,
Ah violence, so much silence." (2X)

D|---------------------------------------------------------------------------|
A|---------------------------------------------------------------------------|
F|---------------------------------------------------------------------------|
C|--6-6-6-5-5-5-0-0-0-6-6-6-5-5-5-0-0-0-6-6-6-5-5-5-0-0-0-6-6-5-5-0-0--------|
G|--6-6-6-5-5-5-0-0-0-6-6-6-5-5-5-0-0-0-6-6-6-5-5-5-0-0-0-6-6-5-5-0-0--------|       (2X)
C|--6-6-6-5-5-5-0-0-0-6-6-6-5-5-5-0-0-0-6-6-6-5-5-5-0-0-0-6-6-5-5-0-0--------|

"Silence, so much violence,
Ah violence, so much silence." (2X)

D|---------------------------------------------------------------------------|
A|---------------------------------------------------------------------------|
F|---------------------------------------------------------------------------|
C|---6----5----0----6----5----0----6----5----0----6--5--0--------------------|      (2X)
G|---6----5----0----6----5----0----6----5----0----6--5--0--------------------|
C|---6----5----0----6----5----0----6----5----0----6--5--0--------------------|

Clean w/ Same delay as before

"How hgh can you go?"

D|---------------------------------------------------------------------------|
A|---------------------------------------------------------------------------|
F|---------------------------------------------------------------------------|
C|---------------5555h7-------------------5555h7------------------5555h7-----|     
G|--5-5-888-5-5--------------5-5-888-5-5-----------5-5-888-5-5---------------|
C|---------------------------------------------------------------------------|

D|---------------------------------------------------------------------------|
A|---------------------------------------------------------------------------|
F|---------------------------------------------------------------------------|
C|---------------5555p3------------------------------------------------------|
G|---5-5-888-5-5-------------------------------------------------------------|
C|---------------------------------------------------------------------------|

"I got a friend and he's running away,
I caught a flick at the matinae
You know its here but it aint gonna stay
I gotta switch to mandalah."

D|---------------------------------------------------------------------------|
A|---------------------------------------------------------------------------|
F|---------------------------------------------------------------------------|
C|---------------5555h7-------------------5555h7------------------5555h7-----|     
G|--5-5-888-5-5--------------5-5-888-5-5-----------5-5-888-5-5---------------|
C|---------------------------------------------------------------------------|

"How high can you go?"

D|---------------------------------------------------------------------------|
A|---------------------------------------------------------------------------|
F|------------0----------------0--------------0--------------0---------------|
C|---------7-----7---7------7-----7---7----7-----7---7----7-----7---7--------|
G|-------8---8-----8------8---8-----8----8---8-----8----8---8-----8----------|
C|---------------------------------------------------------------------------|

Distort w/ no delay.
What i suggest is to palm mute the first four hits, then let the fifth ring.
Just leave your finger palm muting the notes on the fret its about the let ring.

"How high" (8X)

D|---------------------------------------------------------------------------|
A|---------------------------------------------------------------------------|
F|---------------------------------------------------------------------------|
C|---(3-3-3-3)-3--(5-5-5-5)-5-(6-6-6-6)-6--(5-5-5-5)-5-----------------------|   
G|---(3-3-3-3)-3--(5-5-5-5)-5-(6-6-6-6)-6--(5-5-5-5)-5-----------------------|
C|---(3-3-3-3)-3--(5-5-5-5)-5-(6-6-6-6)-6--(5-5-5-5)-5-----------------------|

Then this riff. Then go back and do it again.

D|---------------------------------------------------------------------------|
A|---------------------------------------------------------------------------|
F|---------------------------------------------------------------------------|
C|---(3-3-3-3)-3--(5-5-5-5)-5-(6-6-6-6)-6--(10-10-10-10)-10------------------|   
G|---(3-3-3-3)-3--(5-5-5-5)-5-(6-6-6-6)-6--(10-10-10-10)-10------------------|
C|---(3-3-3-3)-3--(5-5-5-5)-5-(6-6-6-6)-6--(10-10-10-10)-10------------------|

D|----------3----------------------------------------------------------------|
A|----------3----------------------------------------------------------------|
F|----------2----------------------------------------------------------------|
C|---0---0-------------------------------------------------------------------|
G|---0---0-------------------------------------------------------------------|
C|---0---0-------------------------------------------------------------------|


(Chorus)


D|--------------------------------8--------------13------8-----10------------|
A|-------8----------------------------8--------------------------------------|
F|---------------------------------------------------------------------------|
C|---------------------------------------------------------------------------|
G|---------------------------------------------------------------------------|
C|---------------------------------------------------------------------------|

This part is played on some sort of acoustic guitar,
And i cant figure it out, might be based around what ive got,
but its definately not 100%. 
"How high can you go?"

D|---------------------------------------------------------------------------|
A|------3-3---3-3---3----3-3---3-3---5---------------------------------------|
F|------2-2---2-2---2----2-2---5-5---7---------------------------------------|
C|----0-----0-----0----3-----5-----7-----------------------------------------|
G|---------------------------------------------------------------------------|
C|---------------------------------------------------------------------------|

Distort that guitar again, the timing is cool so listen carefully to the track.

D|---------------------------------------------------------------------------|
A|---------------------------------------------------------------------------|
F|---------------------------------------------------------------------------|
C|----8h10-----5h6----6h8-------3h5------5h6---------------------------------|        (2X)
G|----8h10-----5h6----6h8-------3h5------5h6---------------------------------|
C|----8h10-----5h6----6h8-------3h5------5h6---------------------------------|

D|---------------------------------------------------------------------------|
A|---------------------------------------------------------------------------|
F|---------------------------------------------------------------------------|
C|----5h6-0-----5h6-0------5h6-0--5h6-0--------------------------------------|
G|----5h6-0-----5h6-0------5h6-0--5h6-0--------------------------------------|
C|----5h6-0-----5h6-0------5h6-0--5h6-0--------------------------------------|

D|---------------------------------------------------------------------------|
A|---------------------------------------------------------------------------|
F|---------------------------------------------------------------------------|
C|----5h6-0---------5h6-0---------5h6-0--------5h6-0--5h6-0-------5h6-0------|
G|----5h6-0---------5h6-0---------5h6-0--------5h6-0--5h6-0-------5h6-0------|
C|----5h6-0---------5h6-0---------5h6-0--------5h6-0--5h6-0-------5h6-0------|

(Chorus)

This is the outro. Again im not sure about it. 
Keep the distortion up, even drop the delay back in if you fancy.


"Silent Soul,
It sold my soul.
Silence" (4X)

D|---0-0-0-00-0--00--00-0-0-0-0----------------------------------------------|
A|---3-3-3-33-3--33--33-3-3-3-3----------------------------------------------|
F|---2-2-2-22-2--22--22-2-2-2-2----------------------------------------------|
C|---0-0-0-00-0--00--33-3-3-3-3--(6-6)--6--6--(5-5)-5--(3-3)-3---------------|    (4X)
G|---0-0-0-00-0--00--33-3-3-3-3--(6-6)--6--6--(5-5)-5--(3-3)-3---------------|
C|---0-0-0-00-0--00--00-0-0-0-0--(6-6)--6--6--(5-5)-5--(3-3)-3---------------|

On an acoustic:

D|---------------------------------------------------------------------------|
A|---------------------------------------------------------------------------|
F|------------2-------------------2------------------------------------------|
C|--------3-----3---3---------3-----3---3------------------------------------|
G|------5---5-----5---------5---5-----5--------------------------------------|
C|----0-------------------0--------------------------------------------------|

"Sold my soul,
Stole my soul and I 
still fall"  (3X)

Clean electric, use delay as before, and a slide if possible.

D|------------8-\-5-----8-\-5-----5-\-1--------------------------------------|
A|---------------------------------------------------------------------------|
F|---------------------------------------------------------------------------|
C|---------------------------------------------------------------------------|    (3X)
G|---------------------------------------------------------------------------|
C|---------------------------------------------------------------------------|

"Still falling"

D|------------8-\-5-----8-/-10-/-13------------------8-/-10------------------|
A|---------------------------------------------------------------------------|
F|---------------------------------------------------------------------------|
C|---------------------------------------------------------------------------|    
G|---------------------------------------------------------------------------|
C|---------------------------------------------------------------------------|





| /  slide up
| \  slide down
| h  hammer-on
| p  pull-off
| ~  vibrato
| +  harmonic
| x  Mute note
===============================================================================

Добавлено: 13.05.2012
Другие материалы по этой песне:

Страница создана 22.02.2012
http://primanota.ru/cog/silence-is-violence-chords.htm
Привет, Гость.
Предлагаем пройти революционный курс по гитаре.
Подарок от PrimaNota.Ru, забирай!