PrimaNota.ru - самый крупный в мире бесплатный архив песенных текстов, аккордов, табулатур и нот


Cog - Bird Of Feather - таба, видео

Регистрация Запомнить меня
Войти через:  Facebook Google Twitter Vk Yandex Mail.ru

Cog - Bird Of Feather - таба, видео

Печатать
Просмотров: 122
-------------------------------------------------------------------------------
			   BIRD OF FEATHER - COG
-------------------------------------------------------------------------------
Tabbed by: Luke mac
Email: macca1990@hotmail.com

NOTE: first tab, not 100% sure on tuning.. only half complete, in the process of
feel free to email pointers!

UPDATE: So i got a request email to finish this so i decided i would.. or try to..
what i've got so far! I'm bascially listening to the bass
too.. Working off that with the chorus.. but the studio version is hard to work with..
alot of guitar going on and i can't fit it all in..


Very unfortunate that my guitar that i tuned down this low was my brothers and now he's
here anymore.. SOOO, unfortunate for me,
yay for the electric guitarists i'm tabbing this on a classical with no cut away! and i
use my thumb for assistance.. So i'll tell you what
to do.


Position your hand so you have

10
11
12	Pretty sure Flynn uses his thumb for the bareing of the 10's.. Try what you like.. I
use my index across the fret.
12
10
10


 Intro / verse


D|--------------------------------------------------------------|
A|----11------10--------13-------11------10-----11-----13-------|
F|----12------12--------12-------12------12-----12-----12-------|
C|----12------12--------12-------12------12-----12-----12-------|
G|--------------------------------------------------------------|
C|--------------------------------------------------------------|
	  ..candle...divides...  time.. .you... two.. ..toll

I feel i'm making this too complicated.. If you're just strumming along.. i'd just do 
bare chords...

Chorus
    **listen for strumming pattern

With the first chord.. still troubles me.. don't no why. But what i put down sounds 
right..
It would help if i had some good footage of just Flynn playing the whole song but the 
clip
gives away little.. so does all the utube videos.


D|---------------------3-----5-----3-----3-----------------------------------|
A|--still unsure bout--4-----8-----3-----3-----------------------------------|
F|--first--chord-------5-----7-----3-----0-----------------------------------|
C|---------------------5-----5-----1-----0-----------------------------------|
G|---------------------3-----5-----1-----0-----------------------------------|
C|---------------------3-----5-----1-----0-----------------------------------|

        Sounds like he adds    ***D|--3--6--4--3-|
        a little bit here       A|--3--6--4--3---|
                       F|------------------------|
                       c|------------------------|
                       G|------------------------|
                       C|------------------------|


D|--3------5------3------3----------|
A|--4------8------3------3----------|
F|--5------7------3------0----------|Not-?
C|--5------5------1------0---Sure-3-|
G|--3------5------1------0--------3-|
C|--3------5------1------0--------3-|

Intro/ Verse

Chorus

Interlude: I found this difficult to pick it apart and listen.. so i just did this.

D|------------------------------------------------|
A|------------------------------------------------|
F|------------------------------------------------|
C|--5555-77-99-7777-99-77-5555-77-99-7777-99-77-55|
G|--3333-55-77-5555-77-55-3333-55-77-5555-77-55-33|
C|------------------------------------------------|

D|------------------------------------------------|
A|------------------------------------------------|
F|------------------------------------------------|
C|--5555-77-99-7777-99-77-5555-77-99-7777--13?/0--|
G|--3333-55-77-5555-77-55-3333-55-77-5555--13?/0--|
C|------------------------------------------------|


Intro / verse - **Slighty varied.. key listeners will pick it up

This little bridge or whatever before the Chorus..

D|---6---6---6---6---6---6---6--|
A|--8-8-8-8-8-8-8-8-8-8-8-8-8-8-|
F|-8---8---8---8---7---7---7---7| x2
C|------------------------------|
G|------------------------------|
C|------------------------------|


chorus 2nd part 1x round

D|----------|
A|----------|
F|-3---5----|
C|-3-3-5-5--|
G|-1-3-3-5--|
C|---3---5--|
..only

D|---------|
A|---------|
F|---------|
C|-1--0--5-|
G|-1--0--5-|
C|-1--0--5-|

..space

Finaly Strumming is your starter position and with just the high 4 last..
Добавлено: 14.04.2012
Другие материалы по этой песне:
  • Аккорды и текст

Страница создана 14.04.2012
http://primanota.ru/cog/bird-of-feather-chords.htm
Привет, Гость.
Предлагаем пройти революционный курс по гитаре.
Подарок от PrimaNota.Ru, забирай!