PrimaNota.ru - самый крупный в мире бесплатный архив песенных текстов, аккордов, табулатур и нот


Cog - Anarchy Ok - текст песни, таба, видео

Регистрация Запомнить меня
Войти через:  Facebook Google Twitter Vk Yandex Mail.ru

Cog - Anarchy Ok - текст песни, таба, видео

Печатать
Просмотров: 162
Cog - Anarchy Ok
The New Normal

Tabbed By Ryan Thyer
Rhino24@hotmail.com


I sat there and tabbed this song cos the riff is just awesome
i am sure cog use a lower tuning on the Low E string, but this is the right notes and 
for dropped D tuning

Tuning : DADGBe


Intro

|-------------------------------------------------------|
|-------------------------------------------------------|
|-------------------------------------------------------|
|-3------3-/5--1----------------------------------------|       x4
|-x------x--x--x----------------------------------------|
|-3------3-/5--1----------------------------------------|

|---------------------------------------------------------------------------|
|---------------------------------------------------------------------------|
|---------------------------------------------------------------------------|
|-555-----------------------------------555---------------------------------|
|-----666-333-555-----111-3h5-3--3h5p3------666-333-555----111-3h5-3-3h5p3--|
|-----------------555-----------------------------------555-----------------|
 pm-------------------------------------------------------------------------|


|-------------------------------------------------------------------------|
|-------------------------------------------------------------------------|
|-------------------------------------------------------------------------|
|-555-----------------------------------555-------------------------------|
|-----666-333-555-----111-3h5-3--3h5p3------666-333-555----111-3h5-3-3h5p3|
|-----------------555-----------------------------------555---------------|
"I cant wait till tomorrow..."


then after the first verse the riff changes slightly
|-------------------------------------------------------------------|
|-------------------------------------------------------------------|
|-------------------------------------------------------------------|
|-------------------------------------------------------------------|
|-10---------------------------------13-----------------------------|
|-----13--12--8--10--5-----10h12p10-----12h13-12--8-10-5--10h12p10--|

|-----------------------------------------------------------------|
|-----------------------------------------------------------------|
|-----------------------------------------------------------------|
|-----------------------------------------------------------------|
|-10---------------------------------13---------------------------|
|-----13--12--8--10--5-----10h12p10-----12h13-12--8-10-5--1h3p1---|


|-----------------------------------------------------------------|
|-----------------------------------------------------------------|
|-3/5-55-5\3----------3/5-55-5\3-----3/5-55-5\3-------------------|
|-------------1------------------3-----------------1--------------|
|-1/3-33-3\1--x-------1/3-33-3\1-x---1/3-33-3\1----x--------------|
|-------------1(hold)------------3---------------0-1--------------|

The rest of the song is just variations of this riff,

Enjoy.
Добавлено: 05.04.2012
Другие материалы по этой песне:
  • Аккорды и текст

Страница создана 05.04.2012
http://primanota.ru/cog/anarchy-ok-chords.htm
Привет, Гость.
Предлагаем пройти революционный курс по гитаре.
Подарок от PrimaNota.Ru, забирай!