PrimaNota.ru - самый крупный в мире бесплатный архив песенных текстов, аккордов, табулатур и нот


Cody - Bowling For Soup - бас-таба, видео

Регистрация Запомнить меня
Войти через:  Facebook Google Twitter Vk Yandex Mail.ru

Cody - Bowling For Soup - бас-таба, видео

Печатать
Просмотров: 83
Cody
Bowling_For_Soup_bassolo.btab
TablEdited by jani_bjorklund
Tuning : E A D G 	Time Signature: 4/4

 tempo 134       |       |        |       |       |       |        
|----------------0-------1-----2-|----------------------2-0-------|
|0-----0-4-----------------------|----------------0---------2-0---|
|--------------------------------|0-----0-4-----------------------|
|--------------------------------|--------------------------------|

 |       |       |       |        |       |       |       |        
|--------------------------------|--------------------------------|
|--------0-----0-2-----0---------|--------------------------------|
|2-----2-----------------2-------|--------2-----2-0-----0-4-----0-|
|------------------------------0-|3-----3-------------------------|

 |       |       |       |        |       |       |       |        
|----------------0-------1-------|2-------0-----------------------|
|0-----0-4-----------------------|----------------4-------2-------|
|------------------------------0-|--------------------------------|
|--------------------------------|--------------------------------|

 |       |       |       |        |       |       |       |        
|4-------------------------------|--------------------------------|
|--------0-----0-2-----0---------|--------------------------------|
|2-----2-----------------2-------|--------2-----2-0-----0-4-----0-|
|------------------------------0-|3-----3-------------------------|

 |       |       |       |        |       |       |       |        
|----------------0-----0-1-------|2-------0-----------------------|
|0-------4-----------------------|----------------4-------2-------|
|------------------------------0-|--------------------------------|
|--------------------------------|--------------------------------|


Transcribe! 6.0 transcription http://www.seventhstring.demon.co.uk/
Created with TablEdit http://www.tabledit.com/
http://www.geocities.com/jani_bjorklund/janis.html?1058405404377
     
Добавлено: 13.10.2013
Вам также может быть интересно:
Другие материалы по этой песне:
  • Аккорды и текст

Страница создана 13.10.2013
http://primanota.ru/cody/bowling-for-soup-chords.htm
Привет, Гость.
Предлагаем пройти революционный курс по гитаре.
Подарок от PrimaNota.Ru, забирай!