PrimaNota.ru - самый крупный в мире бесплатный архив песенных текстов, аккордов, табулатур и нот


Cody Canada And The Departed - Inbetweener - таба, видео

Регистрация Запомнить меня
Войти через:  Facebook Google Twitter Vk Yandex Mail.ru

Cody Canada And The Departed - Inbetweener - таба, видео

Печатать
Просмотров: 27
-------------------------------------------------------------------------------
                             INBETWEENER - Cody Canada and the Departed
-------------------------------------------------------------------------------
Tabbed by:Me
E-mail:
You can do it without a capo but Cody does it this way.
Tuning:Capo 3rd
x=mute strings and strum
h=hammer-on
b=bend down
e|-----------------------------------------------------------------------------|
B|-----------------------------------------------------------------------------|
G|--0-----2-----------------2---2-2--0h2-2-2-----------------------------------|
D|--0--x--2-----------------2---2-2--0---0-0---0-2-0---------x------repeat-----|
A|--x--x--0-----0---3b0-----0---0-0----------0-------3b0---0-x-----------------|
E|--3--x----0h3---0-----3-0------------------------------3---x-----------------|

************************************

| /   slide up
| \   slide down
| h   hammer-on
| p   pull-off
| ~   vibrato
| +   harmonic
| x   Mute note
| b   Bend
| pb  Pre-bend
| br  Bend release
| pbr Pre-bend release
| brb Bend release bend

************************************
Добавлено: 12.08.2015
Другие материалы по этой песне:
  • Аккорды и текст

Страница создана 12.08.2015
http://primanota.ru/cody-canada-and-the-departed/inbetweener-chords.htm
Привет, Гость.
Предлагаем пройти революционный курс по гитаре.
Подарок от PrimaNota.Ru, забирай!