PrimaNota.ru - самый крупный в мире бесплатный архив песенных текстов, аккордов, табулатур и нот


Code Orange Kids - My World - таба, видео

Регистрация Запомнить меня
Войти через:  Facebook Google Twitter Vk Yandex Mail.ru

Code Orange Kids - My World - таба, видео

Печатать
Просмотров: 117
-------------------------------------------------------------------------------
                            Code Orange - My World
-------------------------------------------------------------------------------
Tabbed by: Danny Fox
E-mail: dannyfox1696@gmail.com

Tuning: Drop B   B F# B E G# C#

C#|---------------------------------------------------------------------------|
G#|----10-10-10-10-10-10-10-10-10-10-10-10-9--9-------------------------------|
E |----13-13-13-13-13-13-13-13-13-13-13-13-12-12------------------------------|
B |---------------------------------------------------------------------------|
F#|0-0------------------------------------------------------------------------|
B |0-0------------------------------------------------------------------------|

e|-----------------------------------------|   ----------------------------------|
B|----10-10-10-10-10-10--------------------|   ----------------------------------|
G|----13-13-13-13-13-13--------------------|   ----------------------------------|
D|-----------------------------------------|   ----------------------------------|
A|0-0-------------------0-8-0-8-8-8-0-11---|   -3--3-3-3-3-3-3-------------------|
E|0-0-------------------0-8-0-8-8-8-0-11---|   -3--3-3-3-3-3-3-------------------|

e|---------------------------------------------------------------------------|
B|---------------------------------------------------------------------------|
G|---------------------------------------------------------------------------|
D|---------------------------------------------------------------------------|
A|0-0-0-0-0--0-1-3-2--0-0-0-0-0--0-0----0----0----0---0-000------------------|
E|0-0-0-0-0--0-1-3-2--0-0-0-0-0--0-0-4--0-3--0-2--0-1-0-000------------------|

e|---------------------------------------------------------------------------|
B|-----------------------------------------------------10-10-10-10-10-9-9----|
G|-----------------------------------------------------13-13-13-13-13-12-12--|
D|---------------------------------------------------------------------------|
A|0-0-0-0-0--0-1-3-2--0-0-0-0-0--0-0----0----0----0-0------------------------|
E|0-0-0-0-0--0-1-3-2--0-0-0-0-0--0-0-4--0-3--0-2--0-0------------------------|

e|---------------------------------------------------------------------------|
B|---------------------------------------------------------------------------|
G|---------------------------------------------------------------------------|
D|---------------------------------------------------------------------------|
A|0-0-0-0-0--0-1-3-2--0-0-0-0-0--0-0----0----0----0---0-000------------------|
E|0-0-0-0-0--0-1-3-2--0-0-0-0-0--0-0-4--0-3--0-2--0-1-0-000------------------|

e|---------------------------------------------------------------------------|
B|---------------------------------------------------------------------------|
G|---------------------------------------------------------------------------|
D|---------------------------------------------------------------------------|
A|0-0-0-0-0--0-1-3-2--0-0-0-0-0--0-0----0----0----0-4-0-000------------------|
E|0-0-0-0-0--0-1-3-2--0-0-0-0-0--0-0-4--0-3--0-2--0---0-000------------------|

e|-------------------------------------------------------------------------------------|
B|-------------------------------------------------------------------------------------|
G|-------------------------------------------------------------------------------------|
D|-------------------------------------------------------------------------------------|
A|-0-0-0-0----10-10-10-10-10-10-10-10-7-7-7-10-10-10-10-10-10-10-10-10-10-10-10-7-7----|
E|-0-0-0-0-----------------------------------------------------------------------------|

e|-------------------------------------------------------------------------------------|
B|-------------------------------------------------------------------------------------|
G|-------------------------------------------------------------------------------------|
D|-------------------------------------------------------------------------------------|
A|-2-2-3-0----10-10-10-10-10-10-10-10-7-7-7-10-10-10-10-10-10-10-10-10-10-10-10-7-7----|
E|-2-2-3-0-----------------------------------------------------------------------------|


e|---------------------------------------------------------------------------|
B|---------------------------------------------------------------------------|
G|-----3-2--------------------------------3-2--------------------------------|
D|---------0----------------------------------0------------------------------|
A|0-1--------4---0--0--0--0--0--0--0--0-1-------4-0-0-4-0-0-000--------------|
E|0-1--------4---0--0--0--0--0--0--0--0-1-------4-0-0---0-0-000--------------|

e|--------------------------|-------------------------------|                                    ------------|
B|--------------------------|-------------------------------|                                    ------------|
G|----3-2-------------------|-------------------------------|                                    ------------|
D|--------0-----------------|-------------------------------|  x4 Then repeat previous part with ------------|
A|0-1-------4-1-1-1-1-1-1---|--0---0-1-0---0-1-0-3-4-1-3-1--|                                    -1-0--------|
E|0-1-------4-1-1-1-1-1-1---|--0---0-1-0---0-1-0-3-4-1-3-1--|                                    -1-0--4-3---|

e|---------------------------------------------------------------------------|
B|------------------------------------------------------10-10-10-10-10-9--9--|
G|------------------------------------------------------13-13-13-13-13-12-12-|
D|---------------------------------------------------------------------------|
A|0--0--0-000-0-0-0-0-----------------0--0--0-000-0-0-0----------------------|
E|0--0--0-000-0-0-0-0-4---0-3---0-2---0--0--0-000-0-0-0----------------------|

e|------------------------------------------------------------------------------------------------------------|
B|-----------------------------------------10-10-10-10-10-9--9------------------------------------------------|
G|-----------------------------------------13-13-13-13-13-12-12-----------------------------------------------|
D|------------------------------------------------------------------------------------------------------------|
A|0--0------0--0------------0--0-----0--0------------------------0--0----0--0---0-0-4-0-0-000--0--0-----0--0--|
E|0--0------0--0--0-4--0-3--0--0-----0--0------------------------0--0----0--0---0-0---0-0-000--0--0-----0--0--|


************************************

| /   slide up
| \   slide down
| h   hammer-on
| p   pull-off
| ~   vibrato
| +   harmonic
| x   Mute note
| b   Bend
| pb  Pre-bend
| br  Bend release
| pbr Pre-bend release
| brb Bend release bend

************************************
Добавлено: 09.07.2015
Вам также может быть интересно:
Другие материалы по этой песне:
  • Аккорды и текст

Страница создана 09.07.2015
http://primanota.ru/code-orange-kids/my-world-chords.htm
Привет, Гость.
Предлагаем пройти революционный курс по гитаре.
Подарок от PrimaNota.Ru, забирай!