PrimaNota.ru - самый крупный в мире бесплатный архив песенных текстов, аккордов, табулатур и нот


Code Orange Kids - Flowermouth The Leech - бас-таба, видео

Регистрация Запомнить меня
Войти через:  Facebook Google Twitter Vk Yandex Mail.ru

Code Orange Kids - Flowermouth The Leech - бас-таба, видео

Печатать
Просмотров: 42
-------------------------------------------------------------------------------
                             FLOWERMOUTH (THE LEECH) - Code Orange
-------------------------------------------------------------------------------
Tabbed by: cesare_moon
E-mail: 

Artist: Code Orange (Formerly Code Orange Kids)
Album: Love Is Love // Return To Dust
Year: 2012

Tuning: CGCF

00.00 - 00.32

F|---------------------------------------------------------------------------|
C|---------------------------------------------------------------------------|
G|---------------------------------------------------------------------------|
C|-0-0-0-0-8-0-0-0-0-0-4-4-4-0-0-0-0-8-0-0-0-1-1-4-1-1-4-4-4-----------------| x6

00.39 - 01.07

F|---------------------------------------------------------------------------|
C|---------------------------------------------------------------------------|
G|---------------------------------------------------------------------------|
C|-0-0-0-0-0-0-0-8/2-2-2-2-2-2-2-2-1-1-1-1-4-4-4-4---------------------------| x4

01.07 - 01.31

F|---------------------------------------------------------------------------|
C|---------------------------------------------------------------------------|
G|---------------------------------------------------------------------------|
C|-0-0-0-8-8-0-0-0-0-11-11-11-8-8-8-1-1-1-1-1-1-1-1-4-4-4-4-4-4-4-4----------| x4

01.31 - 01.38

F|---------------------------------------------------------------------------|
C|---------------------------------------------------------------------------|
G|---------------------------------------------------------------------------|
C|-0--0--0-0-7------0-0-0-7----0~--------------------------------------------|

| /  slide up
| \  slide down
| h  hammer-on
| p  pull-off
| ~  vibrato
| +  harmonic
| x  Mute note
===============================================================================
Добавлено: 25.06.2016
Другие материалы по этой песне:

Страница создана 09.07.2015
http://primanota.ru/code-orange-kids/flowermouth-leech-chords.htm
Привет, Гость.
Предлагаем пройти революционный курс по гитаре.
Подарок от PrimaNota.Ru, забирай!