PrimaNota.ru - самый крупный в мире бесплатный архив песенных текстов, аккордов, табулатур и нот


Cocteau Twins - Shallow Then Halo - текст песни, бас-таба, видео

Регистрация Запомнить меня
Войти через:  Facebook Google Twitter Vk Yandex Mail.ru

Cocteau Twins - Shallow Then Halo - текст песни, бас-таба, видео

Печатать
Просмотров: 198
Уроки эстрадного вокала в Санкт-Петербурге
-------------------------------------------------------------------------------
			  Shallow Then Halo - Cocteau Twins
-------------------------------------------------------------------------------

Tabbed By : David K
e-mail: thischarmingman13@gmail.com

Tuning: Std.

A song from the Cocteau Twins best era...when Garlands came out. 
G|---------------------------------------------------------------------------|
D|---------------------------------------------------------------------------|
A|-77-77777-77777-777-7-7-7-88-88888-88888-888-8-8-8-------------------------|
E|---------------------------------------------------------------------------|
Variation
G|---------------------------------------------------------------------------|
D|--------------------9-9---------------------10-10--------------------------|
A|-77-77777-77777-777--7-7--88-88888-88888-888--8--8-------------------------|
E|---------------------------------------------------------------------------|
(1:00) The notes below are 10s, not 1s
G|---------------------------------------------------------------------------|
D|99-99999-99999-99999-9-9-9-------------------------------------------101010|
A|--------------------------1010-1010101010-1010101010-1010101010-101010-----|
E|---------------------------------------------------------------------------|

| /  slide up
| \  slide down
| h  hammer-on
| p  pull-off
| ~  vibrato
| +  harmonic
| x  Mute note
===============================================================================
Добавлено: 14.06.2012
Другие материалы по этой песне:
  • Аккорды и текст

Страница создана 31.05.2012
http://primanota.ru/cocteau-twins/shallow-then-halo-chords.htm
Привет, Гость.
Предлагаем пройти революционный курс по гитаре.
Подарок от PrimaNota.Ru, забирай!