PrimaNota.ru - самый крупный в мире бесплатный архив песенных текстов, аккордов, табулатур и нот


Cocoon - Take Off - таба, видео

Регистрация Запомнить меня
Войти через:  Facebook Google Twitter Vk Yandex Mail.ru

Cocoon - Take Off - таба, видео

Печатать
Просмотров: 180
-------------------------------------------------------------------------------
                             Take off - Cocoon
-------------------------------------------------------------------------------
Tabbed by: granarc (Robin Gullo)
Email: granarc *at* free *dot* fr



CAPO 7



== INTRO / VERSE ==


There are only two chords in the verse :

    C     => [032013]      (real chord : G)
    Fmaj7 => [003210]      (real chord : Cmaj7)


                C                           Fmaj7
e||---------3-----3-----3-----|--0-----0------------0------|| x2 intro
B||---1-----1-----------1-----|--------1---------1--1------|| x8 verse
G||*--------0--0--------0--0--|-----2--2--0--0h2----2--0--*||
D||*-----2-----------2--------|--3------------------------*||
A||---3-----------3-----------|----------------------------||
E||---------------------------|----------------------------||
      Well  I     wish  that I               could     land




== CHORUS ==


There are 2 new chords in the chorus :

    Am    => [002210]      (real chord : Em)
    Cmaj9 => [320010]      (real chord : Gmaj9)


                Am                        Cmaj9
e||---------0-----0-----0-----|--------0-----0-----0-----|
B||---------1-----------1-----|--------1-----------1-----|
G||*--2-----2--2--------2--2--|--0-----0--0--------0--0--|
D||*-----2-----------2--------|-----0-----------0--------|
A||---0-----------0-----------|--------------------------|
E||---------------------------|--3-----------3-----------|
 The  take     off         is    some-----times       hard

              Fmaj7              Fmaj7       C
e||--0-----0------------0-----|--------0-----------0------|| x2
B||--------1---------1--1-----|--------1-----------1------||
G||-----2--2--0--0h2----2--2--|-----2--2--0-----0--0--0--*||
D||--3------------------------|--3-----------2-----------*||
A||---------------------------|---------------------------||
E||---------------------------|---------------------------||


--------------------------------------------------

Well I wish that I could land
Well it is what they demand
Well I need a gun or a hand
Well I wish that I could land

The take off is sometimes hard
I dream of a bodyguard
...a bodyguard

My friends all died in a plane crash
Well there is a god but he wants cash
I had a bear, gone to Hawaii
And Kevin Costner has retired

The take off is sometimes hard
I dream of a bodyguard
The take off is sometimes hard
I dream of a bodyguard
...a bodyguard
...a bodyguard
Добавлено: 21.05.2012
Вам также может быть интересно:
Другие материалы по этой песне:
  • Аккорды и текст

Страница создана 21.05.2012
http://primanota.ru/cocoon/take-off-chords.htm
Привет, Гость.
Предлагаем пройти революционный курс по гитаре.
Подарок от PrimaNota.Ru, забирай!