PrimaNota.ru - самый крупный в мире бесплатный архив песенных текстов, аккордов, табулатур и нот


Cocoon - In My Boat - таба, видео

Регистрация Запомнить меня
Войти через:  Facebook Google Twitter Vk Yandex Mail.ru

Cocoon - In My Boat - таба, видео

Печатать
Просмотров: 128
Cocoon
In my boat

Capo 3


Intro

----------------------------------------------------------------|
------1-------1-------1-------1-------0-------0-------0-------0-|
--0-------0-------0-------0-------0-------0-------0-------0-----|
----2-------2-------2-------0-------2-------2-------2-------0---|
3-------3-------3-------3---------------------------------------|
--------------------------------0-------0-------3-------3-------|


                                                         In  my
----------------------------------------------------------------|
------1-------1-------1-------1-------0-------0-------0-------0-|
--0-------0-------0-------0-------0-------0-------0-------0-----|
----2-------2-------2-------0-------2-------2-------2-------0---|
3-------3-------3-------3---------------------------------------|
--------------------------------0-------0-------3-------3-------|


A
Boat             I'm looking for where you ran aground nwith your
----------------------------------------------------------------|
------1-------1-------1-------1-------0-------0-------0-------0-|
--0-------0-------0-------0-------0-------0-------0-------0-----|
----2-------2-------2-------0-------2-------2-------2-------0---|
3-------3-------3-------3---------------------------------------|
--------------------------------0-------0-------3-------3-------|


friend           but    I'm     sure the sailor will come to  save
----------------------------------------------------------------|
------1-------1-------1-------1-------0-------0-------0-------0-|
--0-------0-------0-------0-------0-------0-------0-------0-----|
----2-------2-------2-------0-------2-------2-------2-------0---|
3-------3-------3-------3---------------------------------------|
--------------------------------0-------0-------3-------3-------|


you                come to save you                 come to save
------0-------0-------0-------0-------0-------0-------0-------0-|
----------------------------------0-------0-------3-------3-----|
--0-------0-------0-------0---------0-------0-------0-------0---|
----2-------2-------2-------2-----------------------------------|
3-------3-------3-------3---------------------------------------|
--------------------------------0-------0-------3-------3-------|


you             come to save    you
------0-------0-------0-------0-------0-------0-------0-------0-|
--3-------3-------3-------3-------0-------0-------3-------3-----|
------------------------------------0-------0-------0-------0---|
----2-------2-------2-------2-----------------------------------|
3-------3-------3-------3---------------------------------------|
--------------------------------0-------0-------3-------3-------|


             I'll
------0-------0-|
--3-------3-----|
----0-------0---|
----------------|
----------------|
3-------3-------|


B
stay                    face to face                 in front of
------0-------0-------0-------0-------0-------0-------0-------0-|
--1-------1-------1-------1-------1-------1-------1-------1-----|
----2-------2-------2-------2-------2-------2-------2-------2---|
3-------3-------3-------3-------0-------0-------0-------0-------|
----------------------------------------------------------------|
----------------------------------------------------------------|


you                                                         I'll
------0-------0-------0-------0-------0-------0-------0-------0-|
--0-------0-------0-------0-------0-------0-------0-------0-----|
----1-------1-------1-------1-------1-------1-------1-------1---|
2-------2-------2-------2-------2-------2-------2-------2-------|
----------------------------------------------------------------|
----------------------------------------------------------------|



stay                    but  I  hate               the  two   of
------0-------0-------0-------0-------0-------0-------0-------0-|
--1-------1-------1-------1-------1-------1-------1-------1-----|
----2-------2-------2-------2-------2-------2-------2-------2---|
3-------3-------3-------3-------0-------0-------0-------0-------|
----------------------------------------------------------------|
----------------------------------------------------------------|


you                                             how  can  you ex
------0-------0-------0-------0-------0-------0-------0-------0-|
--0-------0-------0-------0-------0-------0-------0-------0-----|
----1-------1-------1-------1-------1-------1-------1-------1---|
2-------2-------2-------2-------2-------2-------2-------2-------|
----------------------------------------------------------------|
----------------------------------------------------------------|



plain                                                   In  my
------0-------0-------0-------0-------0-------0-----------------|
--1-------1-------1-------1-------1-------1---------------------|
----2-------2-------2-------2-------2-------2-------------------|
----------------------------------------------------------------|
0-------0-------0-------0-------0-------0-------0---------------|


Reprendre A, B puis une derniere fois A, termine avec un arpege de Do M

0-
1-
0-
2-
3-
x-
Добавлено: 18.06.2012
Другие материалы по этой песне:
  • Аккорды и текст

Страница создана 18.06.2012
http://primanota.ru/cocoon/in-my-boat-chords.htm
Привет, Гость.
Предлагаем пройти революционный курс по гитаре.
Подарок от PrimaNota.Ru, забирай!