PrimaNota.ru - самый крупный в мире бесплатный архив песенных текстов, аккордов, табулатур и нот


Cocoon - Cathedral - таба, видео

Регистрация Запомнить меня
Войти через:  Facebook Google Twitter Vk Yandex Mail.ru

Cocoon - Cathedral - таба, видео

Печатать
Просмотров: 198
Chords
   Fmaj7 C   Am  Em  G   F  Dm6
e||--0---0---0---0---x---1---0--|
B||--1---1---1---0---3---1---0--|
G||--2---0---2---0---0---2---2--|
D||--3---2---2---2---0---3---0--|
A||------3---0---2---x---3---x--|
E||--------------0---3---1---1--|


Intro / Chorus

    |       | Fmaj7 |       |         |       |   C   |       |
e||-----------0---------------------|-----------------0---------------|
B||-------1---------------1-------1-|-----------1---------------------|
G||-----2-------2-------2-------0---|-------0---------------0-------0-|
D||-3-------3-------3-------0h2-----|-----2-------2-------2-------0---|
A||---------------------------------|-3-------3-------3-------0h2-----|
E||---------------------------------|---------------------------------|

    |       |  Am   |       |         |       |   C   |       |
e||-----------------0---------------|-----------------0---------------|
B||-----------1---------------------|-----------1---------------3-----|
G||-------2---------------2-------0-|-------0---------------0---------|
D||-----2-------2-------2-------0---|-----2-------2-------2-------2---|
A||-0-------0-------0-------0h2-----|-2h3-----3-------3-------3-------|
E||---------------------------------|---------------------------------|

    |       | Fmaj7 |       |         |       |   C   |       |
e||-----------0---------------------|-----------------0---------------|
B||-------1---------------1-------1-|-----------1---------------------|
G||-----2-------2-------2-------0---|-------0---------------0-------0-|
D||-3-------3-------3-------0h2-----|-----2-------2-------2-------0---|
A||---------------------------------|-3-------3-------3-------0h2-----|
E||---------------------------------|---------------------------------|

    |       |  Am   |       |         |       |  Em   |       |
e||-----------------0---------------|-----------------0---------------|
B||-----------1---------------------|-----------0---------------0-----|
G||-------2---------------2---------|-------0---------------0---------|
D||-----2-------2-------2-------0h2-|-----2-------2-------2-------0---|
A||-0-------0-------0-------0h2-----|---------------------------------|
E||---------------------------------|-0-------0-------0-------0-------|


Bridge (1st time x 2 / 2nd time x 4)

    |       |   G   |       |         |       |   F   |       |
e||-----------------0---------------|-----------------1---------------|
B||-3---------3---------------3-----|-1---------1---------------1-----|
G||-------0---------------0---------|-------2---------------2---------|
D||-----0-------0-------0-------0---|-----3-------3-------3-------3---|
A||---------------------------------|---------------------------------|
E||-3-------3-------3-------3-------|-1-------1-------1-------1-------|

    |       |   C   |       |         |       |   G   |       |
e||-----------------0---------------|-----------------3---------------|
B||-1---------1---------------1-----|-0---------0---------------0-----|
G||-------0---------------0---------|-------0---------------0---------|
D||-----2-------2-------2-------2---|-----0-------0-------0-------0---|
A||-3-------3-------3-------3-------|---------------------------------|
E||---------------------------------|-3-------3-------3-------3-------|


Outro

    |       |  Dm6  |       |         |       |   C   |       |
e||---------------------------------|---------------------------------|
B||-----------0-----1p0-------0-----|-1---------1-----3---------1-----|
G||-------2---------------2---------|-------0---------------0---------|
D||-----0-------0-------0-------0---|-----2-------2-------2-------2---|
A||---------------------------------|-3-------3-------3-------3-------|
E||-1-------1-------1-------1-------|---------------------------------|

    |       |   C   |       |
e||-0---------------3---------------|
B||-----------1---------------0-----|
G||-------0---------------0---------|
D||-----2-------2-------2-------2---|
A||-3-------3-------3-------3-------|
E||---------------------------------|


I came from the valley and you came from the sea.
You smelt like the sand.
How far up the river would you go,
Would you go, to meet me again ?

And I build a cathedral
With the shells that you hid in a hole in a tree.
And I loved the words you said
When I told you what the ravens sing in my dreams.

You pushed on my heart every night
And every day to keep me alive.
And you kissed my mouth
And I learned to walk and I learned to try.

Oh can you hear the horses ?
It means the season changes, it means the season changes.
When the river overflows
I'll run to the bridges, I'll run to the bridges.
And for now don't be afraid
If the sun never rises, the sun never rises.
There's a time to let it grow,
There's a time to let it slow
And a time to let it go.
Добавлено: 06.06.2012
Другие материалы по этой песне:
  • Аккорды и текст

Страница создана 06.06.2012
http://primanota.ru/cocoon/cathedral-chords.htm
Привет, Гость.
Предлагаем пройти революционный курс по гитаре.
Подарок от PrimaNota.Ru, забирай!