PrimaNota.ru - самый крупный в мире бесплатный архив песенных текстов, аккордов, табулатур и нот


Cocofunka - Siente - таба, видео

Регистрация Запомнить меня
Войти через:  Facebook Google Twitter Vk Yandex Mail.ru

Cocofunka - Siente - таба, видео

Печатать
Просмотров: 88
Cocofunka

CANCION: Siente
AUTOR: Cocofunka
ALBUM: Hacer Ecoo (2012)

[Actualizada 23/05/13]

Versos

Cae la lluvia...

  Am       D
|-5-5-5-5--5-5-5-5----------------------------------|
|-5-5-5-5--5-5-7-7----------------------------------|
|-5-5-5-5--5-5-7-7----------------------------------|
|---------------------------------------------------|
|---------------------------------------------------|
|---------------------------------------------------|

(BAJO)

|---------------------------------------------------|
|---------------------------------------------------|
|-----3-3-------------------------------------------|
|---5-----5-----------------------------------------|

Coro

|--5---5--------------------------------------------|
|--5---5--------------------------------------------|
|--5---5--------------------------------------------| 
|----7----------------------------------------------|
|-------------5-5-3-5/7/5/3-------------------------|
|---------------------------------------------------|

(BAJO)

|--------------------------------------------------|
|---7----------------------------------------------|
|-----7-5-5-3-5-7----------------------------------|
|-5------------------------------------------------|



*La parte del teclado DESPUES DEL SEGUNDO CORO*
|---------------------------------------------------|    º
|---------------------------------------------------|    º
|--9-7-5-7-5---5-7----------------------------------|
|------------7--------------------------------------|
|---------------------------------------------------|
|---------------------------------------------------|

Esta es la parte toda poderosa que va antes del ultimo coro
la guitarra va parecido a esto
|---------------------------------------------------|
|-5555566666677777888999(10)(10)(11)(11)------------|
|---------------------------------------------------|
|---------------------------------------------------|
|---------------------------------------------------|
|---------------------------------------------------|

y sigue esto todo rapido casi igual que el inicio
|--5x5x5x5-5--5x5x5x5-555---------------------------|
|--5x5x5x5-5--5x5x5x5-777---------------------------|
|--5x5x5x5-5--5x5x5x5-777---------------------------|
|---------------------------------------------------|
|---------------------------------------------------|
|---------------------------------------------------|

http://cocofunka.bandcamp.com/
Добавлено: 10.07.2013
Другие материалы по этой песне:
  • Аккорды и текст

Страница создана 10.07.2013
http://primanota.ru/cocofunka/siente-chords.htm
Привет, Гость.
Предлагаем пройти революционный курс по гитаре.
Подарок от PrimaNota.Ru, забирай!