PrimaNota.ru - самый крупный в мире бесплатный архив песенных текстов, аккордов, табулатур и нот


Cocofunka - Mundo - таба, видео

Регистрация Запомнить меня
Войти через:  Facebook Google Twitter Vk Yandex Mail.ru

Cocofunka - Mundo - таба, видео

Печатать
Просмотров: 108
Cocofunka
CANCION: Mundo
AUTOR: Cocofunka
ALBUM: Hacer Ecoo (2012)

[Actualizada 23/05/13]

 Esta parte es la del bajo
|---------------------------------------------------|
|---------------------------------------------------| º
|---------------------------------------------------|    º
|---------------------------------------------------|        º
|-4--4-7-7-9----------------------------------------|
|--4------------------------------------------------|
   no estoy seguro si es asi el teclado                      º Intro
|---------------------------------------------------|
|---------------------------------------------------|
|---6---9------11-----------------------------------|        º
|--6---9-9---11-------------------------------------|    º
|-4---7-----9---------------------------------------| º
|---------------------------------------------------|


|---------------------------------------------------|
|---------------------------------------------------|
|--6-4----------------------------------------------|
|------6-4------------------------------------------|
|-4--------7----------------------------------------|
|---------------------------------------------------|

    El acorde es Do sostenido menor (Do# m) lo tocan con ritmo funk
|--9-9-9--------------------------------------------|
|--9-9-9--------------------------------------------|
|--9-9-9--------------------------------------------|
|---------------------------------------------------|
|---------------------------------------------------|
|---------------------------------------------------|

http://cocofunka.bandcamp.com/
Добавлено: 19.06.2013
Другие материалы по этой песне:
  • Аккорды и текст

Страница создана 09.06.2013
http://primanota.ru/cocofunka/mundo-chords.htm
Привет, Гость.
Предлагаем пройти революционный курс по гитаре.
Подарок от PrimaNota.Ru, забирай!