PrimaNota.ru - самый крупный в мире бесплатный архив песенных текстов, аккордов, табулатур и нот


Cocofunka - Maria Del Carmen - таба, видео

Регистрация Запомнить меня
Войти через:  Facebook Google Twitter Vk Yandex Mail.ru

Cocofunka - Maria Del Carmen - таба, видео

Печатать
Просмотров: 101
Уроки эстрадного вокала в Санкт-Петербурге
  Cocofunka

CANCION: Maria Del Carmen
ALBUM: Elevarse
AÑO:2010

[Actualizado 23/05/13]

Intro  
      Lam                             
|--x-x-5---------------12--12--12--12---------------|
|--x-x-5---------------10--10--10--10---------------|
|--x-x-5---------------9---9---9---9----------------|
|--x-x-7--------------------------------------------|
|--x-x-7--------------------------------------------|
|--x-x-5--------------------------------------------|

Tienen que sacar el ritmo de esta parte
 Lam  Bm C
|-5---7--8--------------5\--------------------------|
|-5---7--8--------------5\--------------------------|
|-5---7--9--------------5\--------------------------|
|-7---9--10-------------7\--------------------------|
|-7---9--10-------------7\--------------------------|
|-5---7--8--------------5\--------------------------|

Versos
 
Dicen que el amor es una forma de volar (0:32)
|-----------5------------7-----8--------------------|
|-----------5------------7-----8--------------------|
|-----------5------------7-----9--------------------|
|-----------7------------9-----10-------------------|
|-----------7------------9-----10-------------------|
|-----------5------------7-----8--------------------|

A los 2:35 suena esto
|---------------------------------------------------|
|-12\---------12\---------12\-----------------------|
|---------------------------------------------------|
|---------------------------------------------------|
|---------------------------------------------------|
|---------------------------------------------------|

3:38
|-12-10---------------------------------------------|
|-------13-12-10----10-12-13-12-10------------------|
|----------------12---------------------------------|
|---------------------------------------------------|
|---------------------------------------------------|
|---------------------------------------------------|


http://cocofunka.bandcamp.com
Добавлено: 02.07.2013
Другие материалы по этой песне:
  • Аккорды и текст

Страница создана 26.06.2013
http://primanota.ru/cocofunka/maria-del-carmen-chords.htm
Привет, Гость.
Предлагаем пройти революционный курс по гитаре.
Подарок от PrimaNota.Ru, забирай!